Tablatura para Guitarra de Carajo: Luna Herida
Conexión · Inscripción
Letras y Acordes
Pantalla Completa
Imprimir
Versión Texto
Añadir Favorito
Otras Versiones

Mostrar Diagramas
Desfile Automático
Manipular Acordes
Formato del Texto

Carajo
Luna Herida(TAB)
calidad:
carj0351
AUTOR: Corvata
ALBUM: El mar de las Almas (2010)
Enviado por Fabricio
Yo lo toco con esta afinacion

afinacion:

6:C2
5:G2
4:C3
3:F3
2:A3
1:D4

Intro
Las notas de la intro son todas sostenidas

|----------------------------------------------------------|
|----------------------------------------------------------|
|-10---------9-------------7-------------------------------|
|----------------------------------------------------------|
|----------------------------------------------------------|
|----------------------------------------------------------|

|----------------------------------------------------------|
|-8---------11-----10--------------------------------------|
|----------------------------------------------------------|x2
|----------------------------------------------------------|
|----------------------------------------------------------|
|----------------------------------------------------------|

|---------------------------------------------------------------------|
|---------------------------------------------------------------------|
|-10-10-10------------------------------------------------------------|
|--------------10-----10-12-10----------------------------------------|
|--------------------------------10-------13----------12----12-13-12-8|
|---------------------------------------------------------------------|

vuelve a repetir la intro 2 veces

Pre-Estribillo

|------------------------------------------------------------------------|
|------------------------------------------------------------------------|
|---7-9-10-------7-9------------------7-9-10-------7-9-------------------|
|-0-7-9-10-00-0--7-9--8-7-5-0-5-7--0--7-9-10-00-0--7-9--8-7-5-0----------|
|-0-5-7-8--00-0--5-7--8-7-5-0-5-7--0--5-7-8--00-0--5-7--8-7-5-0----------|
|-0--------00-0-------8-7-5-0-5-7--0---------00-0-------8-7-5-0-3--------|

|-----------------------------|
|-----------------------------|
|---7-9-10-------7-9-----------------7-9-10-------7-9-------------|
|-0-7-9-10--00-0-7-9--8-7-5-0-5-7--0-7-9-10-00-0--7-9--8-7-5-0----|
|-0-5-7-8---00-0-5-7--8-7-5-0-5-7--0-5-7-8--00-0--5-7--8-7-5-0----|
|-0---------00-0------8-7-5-0-5-7--0--------00-0-------8-7-5-0-5--|


4|--------------------------------8-8-8-8-8-8-7-7-7-7-7-7-7-6-6-6-6-|
5|-5-5-5-5-5-5-4-4-4-4-4-4-4-4-4------------------------------------|
6|------------------------------------------------------------------|

Rasguido hacia abajo

|-0--------------------0-------------------------------------|
|-0-------------------------0--------------------------------|
|-2-------------------------------2--------------------------|x2
|------------------------------------------------------------|
|------------------------------------------------------------|
|------------------------------------------------------------|



|---------------------------------------------------------------------|
|---------------------------------------------------------------------|
|-10-10-10------------------------------------------------------------|
|--------------10-----10-12-10----------------------------------------|x2
|--------------------------------10-------13----------12----12-13-12-8|
|---------------------------------------------------------------------|

|----------------------------------|
|----------------------------------|
|-----7-9-10--------7-9------------|
|-00--7-9-10--00-0--7-9--8-7-5-0---|
|-00--5-7-8---00-0--5-7--8-7-5-0---|
|-00----------00-0-------8-7-5-0-3-|

|--------------------------------------------------------------------------|
|--------------------------------------------------------------------------|
|----7-9-10--------7-9------------------7-9-10-------7-9-------------------|
|-0--7-9-10--00-0--7-9--8-7-5-0-5-7--0--7-9-10-00-0--7-9--8-7-5-0----------|x2
|-0--5-7-8---00-0--5-7--8-7-5-0-5-7--0--5-7-8--00-0--5-7--8-7-5-0----------|
|-0----------00-0-------8-7-5-0-5-7--0---------00-0-------8-7-5-0-3--------|

Estribillo

|---------------------------------------------------------------------------|
|---------------------------------------------------------------------------|
|-7-7-7-7-7-7-7-7-7-6-6-6-6-6-6-6-6-12-12-12-12-12-12-10-10-10-10-9-9-9-9-9-|
|-7-7-7-7-7-7-7-7-7-6-6-6-6-6-6-6-6-12-12-12-12-12-12-10-10-10-10-9-9-9-9-9-|x2
|-5-5-5-5-5-5-5-5-5-4-4-4-4-4-4-4-4-10-10-10-10-10-10-8--8--8--8--7-7-7-7-7-|
|---------------------------------------------------------------------------|

|------------------------------------------------------------------|
|------------------------------------------------------------------|
|----7-9-10--------7-9------------------7-9-10-------7-9-----------|
|-0--7-9-10--00-0--7-9--8-7-5-0-5-7--0--7-9-10-00-0--7-9-8-7-5-0---|
|-0--5-7-8---00-0--5-7--8-7-5-0-5-7--0--5-7-8--00-0--5-7-8-7-5-0---|
|-0----------00-0-------8-7-5-0-5-7--0---------00-0------8-7-5-0-3-|

|---------------------------------------------------------------------|
|---------------------------------------------------------------------|
|----7-9-10--------7-9------------------7-9-10-------7-9--------------|
|-0--7-9-10--00-0--7-9--8-7-5-0-5-7--0--7-9-10-00-0--7-9--8-7-5-0-5-7-|
|-0--5-7-8---00-0--5-7--8-7-5-0-5-7--0--5-7-8--00-0--5-7--8-7-5-0-5-7-|
|-0----------00-0-------8-7-5-0-5-7--0---------00-0-------8-7-5-0-5-7-|


|--------------------------------------------------------------------------|
|--------------------------------------------------------------------------|
|------10-10-10-------10-10-10-12-12-12-------10-10-10---------10-10-10-9--|
|-0-0--10-10-10--0-0--10-10-10-12-12-12--0-0--10-10-10---0-0---10-10-10-9--|x3
|-0-0--8--8--8---0-0--8--8--8--10-10-10--0-0--8--8--8----0-0---8--8--8--7--|
|-0-0------------0-0---------------------0-0-------------0-0---------------|

|--------------------------------------------------------------------------|
|--------------------------------------------------------------------------|
|-7-7-7-7-7-7-7-6-6-6-6-6-6-6-6-12-12-12-12-12-12-10-10-10-10-10-10-9-9-9--|
|-7-7-7-7-7-7-7-6-6-6-6-6-6-6-6-12-12-12-12-12-12-10-10-10-10-10-10-9-9-9--|x2
|-5-5-5-5-5-5-5-4-4-4-4-4-4-4-4-10-10-10-10-10-10-8--8--8--8--8--8--7-7-7--|
|--------------------------------------------------------------------------|

|-------------------------------------------------------------------|
|-------------------------------------------------------------------|
|----7-9-10--------7-9------------------7-9-10-------7-9------------|
|-0--7-9-10--00-0--7-9--8-7-5-0-5-7--0--7-9-10-00-0--7-9--8-7-5-0---|
|-0--5-7-8---00-0--5-7--8-7-5-0-5-7--0--5-7-8--00-0--5-7--8-7-5-0---|
|-0----------00-0-------8-7-5-0-5-7--0---------00-0-------8-7-5-0-3-|

|-----------------------------------------------------------------------|
|-----------------------------------------------------------------------|
|----7-9-10--------7-9------------------7-9-10-------7-9----------------|
|-0--7-9-10--00-0--7-9--8-7-5-0-5-7--0--7-9-10-00-0--7-9--8-7-5-0-5-7-0-|
|-0--5-7-8---00-0--5-7--8-7-5-0-5-7--0--5-7-8--00-0--5-7--8-7-5-0-5-7-0-|
|-0----------00-0-------8-7-5-0-5-7--0---------00-0-------8-7-5-0-5-7-0-|

|-0-0-|
|-0-0-|
|-0-0-|
Envía el tono de "Luna Herida" a tu celular/móvil
Este fichero es trabajo propio de su transcriptor y representa su interpretación personal de la canción. El material contenido en esta página es
para exclusivo uso privado, por lo que se prohibe su reproducción o retransmisión, así como su uso para fines comerciales.
© LaCuerda.net · Aviso Legal · Privacidad