Tablatura para Guitarra de Canciones Populares: Viva mi patria Bolivia
Conexión · Inscripción
Letras y Acordes
Pantalla Completa
Imprimir
Versión Texto
Añadir Favorito
Otras Versiones

Mostrar Diagramas
Desfile Automático
Manipular Acordes
Formato del Texto

Canciones Populares
Viva mi patria Bolivia(TAB)
calidad:
xxxx0692
AUTOR: Apolinar camacho
ALBUM: desconocido
Enviado por Drayko
Me tarde un poco en sacarla a oído pero lo logre


Y  Esto es para todos los patriotas de Bolivia
Nuestro segundo himno nacional

Pre intro:
SOL7  DO   MI7  LAm
LAm  MI7  LAm  MI7  LAm

 x x | x x x |
 | | | | x | |
 | | | | x | |
 | | | | x | |
 | | x | x | x


X-1
  LAm           MI7             LAm SOL7      DO 
E|-0-0-0-0----------|-------0-----|-----------3-0--|
B|----------3-2-3-0-|-3-3-2---3-1-|-3-3-2-3-1------|
G|------------------|-------------|----------------|
D|------------------|-------------|----------------|
A|------------------|-------------|----------------|
E|------------------|-------------|----------------|
  MI7        LAm SOL7      DO    MI7        LAm
E|-0-0---0-----|-----------3-0--|-0-0---0-----|
B|-----3---3-1-|-3-3-2-3-1------|-----3---3-1-| se repite
G|-------------|----------------|-------------|  desde
D|-------------|----------------|-------------|    X-1
A|-------------|----------------|-------------|
E|-------------|----------------|-------------|





  X-2
  LAm           MI7             LAm SOL7         DO 
E|-0-0-0-0--------|---------------|--------------3-0-|
B|----------3-1-0-|-3-3-3-3-1-0-1-|-3-3-3-3-3-1------|
G|----------------|---------------|------------------|
D|----------------|---------------|------------------|
A|----------------|---------------|------------------|
E|----------------|---------------|------------------|

  MI7         LAm SOL7        DO    MI7        LAm
E|-0-0---0-----|--------------3-0-|-0-0---0-----|
B|-----3---3-1-|-3-3-3-3-3-1------|-----3---3-1-|se repite
G|-------------|------------------|-------------|  desde
D|-------------|------------------|-------------|   X-2
A|-------------|------------------|-------------|
E|-------------|------------------|-------------|


LAm              MI7
Viva mi patria Bolivia
           LAm
Una gran nacion
SOL7             DO 
Por ella doy mi vida
MI7            LAm
También mi corazón

LAm                 MI7
Esta canción que yo canto
                LAm
la brindo con amor
SOL7             DO 
a mi patria Bolivia
MI7                LAm
que quiero con pasión


LAm                 MI7
la llevo en mi corazón
                     LAm
y le doy mi inspiración
SOL7                    DO 
quiera a mi patria Bolivia
MI7             LAm
como la quiero yo





LAm                  MI7
LA LA LA LA LA LA LA LA
                     LAm
LA LA LA LA LA LA LA LA
SOL7                    DO 
quiera a mi patria Bolivia
MI7             LAm
como la quiero yo

Eso es todo y cualquier duda mándenmela a mi correo electrónico
kekos@hotmail.es
Envía el tono de "Viva mi patria Bolivia" a tu celular/móvil
Este fichero es trabajo propio de su transcriptor y representa su interpretación personal de la canción. El material contenido en esta página es
para exclusivo uso privado, por lo que se prohibe su reproducción o retransmisión, así como su uso para fines comerciales.
© LaCuerda.net · Aviso Legal · Privacidad