Tablatura para Guitarra de Canciones Populares: Moliendo Café
Conexión · Inscripción
Letras y Acordes
Pantalla Completa
Imprimir
Versión Texto
Añadir Favorito
Otras Versiones

Mostrar Diagramas
Desfile Automático
Manipular Acordes
Formato del Texto

Canciones Populares
Moliendo Café(TAB)
calidad:
xxxx1283
AUTOR: Hugo Blanco
ALBUM: desconocido
Enviado por Seppy018
E---------------------------------------|
B-----0-1-1-1-1-1-1-1-1-0---1-----------|
G---2---------------------2----2--------|
D-2-------------------------------------|
A---------------------------------------|
E---------------------------------------|


E---------------------------------------|
B-----0--1-1-1-1-1-1-1-1-0---3----------|
G---2---------------------2-------------|
D-2-------------------------------------|
A---------------------------------------|
E---------------------------------------|


E-------------------------0---0---------|
B---0-1-3-3-3-3-3-3-3-3-3---3---3---1---|
G-2-------------------------------------|
D---------------------------------------|
A---------------------------------------|
E---------------------------------------|


E---------------------------------------|
B-----0-1-1-1-1-0-0-0-1-0-1-------------|
G---2-----------------------2-----------|
D-2-------------------------------------|
A---------------------------------------|
E---------------------------------------|

(Se repite toda la canción)


E---0---0---0-1-0---0-------------------|
B-3---3---3-------3---3-1---------------|
G---------------------------------------|
D---------------------------------------|
A---------------------------------------|
E---------------------------------------|


E---0---0---0-1-0-3-0-------------------|
B-3---3---3-----------3---1-------------|
G---------------------------------------|
D---------------------------------------|
A---------------------------------------|
E---------------------------------------|




E---------------------------------------|
B-0-0-0-0-0-0-0-0-1-0-1-----------------|
G-----------------------2---------------|
D---------------------------------------|
A---------------------------------------|
E---------------------------------------|
Este fichero es trabajo propio de su transcriptor y representa su interpretación personal de la canción. El material contenido en esta página es
para exclusivo uso privado, por lo que se prohibe su reproducción o retransmisión, así como su uso para fines comerciales.
© LaCuerda.net · Aviso Legal · Privacidad