Tablatura para Guitarra de Canciones Populares: Las Mañanitas
Conexión · Inscripción
Letras y Acordes
Pantalla Completa
Imprimir
Versión Texto
Añadir Favorito
Otras Versiones

Mostrar Diagramas
Desfile Automático
Manipular Acordes
Formato del Texto


Canciones Populares
Las Mañanitas(TAB)
calidad:
xxxx0136
AUTOR: Canciones Populares  corregir
ALBUM: desconocido
Enviado por Leonardo
Hola amigos hoy les traigo Las Mañanitas, un tema tradicional
de México y Centroamérica.

TABLATURA.

E|---------------------------------0--------0-1-----1-1--0------------------|
A|---------1----1-0-1--3----0-1-3-------1-3-------------------3-1-0--3------|
D|----0-0---------------------------------------0-0-------------------------|
G|--------------------------------------------------------------------------|
B|---------3--3--------------------3--3------------------3--3---------------|
e|---------------------3--3------------------------------------------3------|

E|-------------0-1------|
A|----1-0-1-3------3-1--|
D|----------------------|
G|---------------0------|
B|-------------3-----3--|
e|----3------------3----|

E|---------------------------------0--------0-1-----1-1--0------------------|
A|---------1----1-0-1--3----0-1-3-------1-3-------------------3-1-0--3------|
D|----0-0---------------------------------------0-0-------------------------|
G|--------------------------------------------------------------------------|
B|---------3--3--------------------3--3------------------3--3---------------|
e|---------------------3--3------------------------------------------3------|

E|-------------0-1------|--3--1------0-1--3-0-3-1-----0-1-3---3--1-----0-1--|
A|----1-0-1-3------3-1--|--------3-3--------------3-3--------------3-3------|
D|----------------------|---------------------------------------------------|
G|---------------0------|---------------------------------------------------|
B|-------------3-----3--|-----------------3---3-----------3-----------------|
e|----3------------3----|-----3-----------------3----------------3----------|

E|----1-----0-1-3-0-3-3-1------0--------------------------------------------|
A|------3-3----------------3-3---3--1---------------------------------------|
D|--------------------------------------------------------------------------|
G|--------------------------------------------------------------------------|
B|--------------3---3---3-----------3---------------------------------------|
e|----3---------------------------------------------------------------------|

E|---------------------------------0--------0-1-----1-1--0------------------|
A|---------1----1-0-1--3----0-1-3-------1-3-------------------3-1-0--3------|
D|----0-0---------------------------------------0-0-------------------------|
G|--------------------------------------------------------------------------|
B|---------3--3--------------------3--3------------------3--3---------------|
e|---------------------3--3------------------------------------------3------|

E|-------------0-1------|
A|----1-0-1-3------3-1--|
D|----------------------|
G|---------------0------|
B|-------------3-----3--|
e|----3------------3----|

ACORDES
ESTAS SON LAS MAÑANITAS
G7 C
QUE CANTABA EL REY DAVID
G
HOY POR SER DÍA DE TU SANTO
D7 G
TE LAS CANTAMOS A TI
D7 G
DESPIERTA MI BIEN DESPIERTA MIRA QUE YA AMANECIÓ
C G
YA LOS PAJARILLOS CANTAN
D7 G
LA LUNA YA SE METIÓ
G
QUE LINDA ESTA LA MAÑANA EN QUE VENGO A SALUDARTE VENIMOS TODOS CON GUSTO
G
Y PLACER A FELICITARTE EL DÍA EN QUE TU NACISTE NACIERON TODAS LAS FLORES Y EN LA PILA DEL BAUTISMO
G
CANTARON LOS RUISEÑORES YA VIENE AMANECIENDO
C
YA LA LUZ DEL DIA NOS DIO
D7 G
LEVÁNTATE DE MAÑANA
D7 G
MIRA QUE YA AMANECIÓ
G
QUISIERA SER SOLECITO PARA ENTRAR POR TU VENTANA Y DARTE LOS BUENOS DIAS
G
ACOSTADITA EN TU CAMA
G
QUISIERA SER UN SAN JUAN QUISIERA SER UN SAN PEDRO PA' VENIRTE A SALUDAR
G
CON LA MÚSICA DEL CIELO CON JARDINES Y FLORES
C
HOY TE VENGO A SALUDAR HOY POR SER DÍA DE TU SANTO
D7 G
TE VENIMOS A CANTAR. Bueno eso es todo espero les guste y les sirva de mucho NOTA: si no sabes tocar las tab y los bajos al mismo tiempo solo coca las 1era 2da y 3ra cuerdas.
Este fichero es trabajo propio de su transcriptor y representa su interpretación personal de la canción. El material contenido en esta página es
para exclusivo uso privado, por lo que se prohibe su reproducción o retransmisión, así como su uso para fines comerciales.

© LaCuerda.net · Aviso Legal · Privacidad