Tablatura para Guitarra de Canciones Populares: Las Mañanitas
Conexión · Inscripción
Letras y Acordes
Pantalla Completa
Imprimir
Versión Texto
Añadir Favorito
Otras Versiones

Mostrar Diagramas
Desfile Automático
Manipular Acordes
Formato del Texto

Canciones Populares
Las Mañanitas(TAB)
calidad:
xxxx0132
AUTOR: Canciones Populares  corregir
ALBUM: desconocido
Enviado por ULISES
AQUI ESTA LA ROLA PARA QUE NO SE LES COMPLIQUE ES MAS O MENOS IGUAL
A LA OTRA SOLO SE DIFERENCIA EN QUE EN LA PARTE DONDE DICE QUE LINDA
ESTA LA MAÑANA... SE TOCA EN 5 TRASTE COMO SI FUERA 0 (AL AIRE)Y ASI
SUCESIVAMENTE 5=0 7=2 8=3

SI SE FIJAN EN ESA PARTE SUENA MAS SUAVE POR LO QUE ES MEJOR Y SI LO
TOCAN DE LA FORMA (0,2,3) COMO QUE SE PIERDE LA SECUENCIA Y YA
NO SUENA BIEN

1--------------0------0-2-----0-2-3----3-3-2
2-----3---3-2-3---2-3-------3---------------
3-2-2---------------------------------------
4-------------------------------------------
5-------------------------------------------
6-------------------------------------------

1----0-----0-------0-2-3-0------------
2------3-2---3-2-3---------3----------
3-------------------------------------
4-------------------------------------
5-------------------------------------
6-------------------------------------

1-2-0-----0-2---2-0------0-2-------3--
2----3-2-3---3-----3-2-3-------3-3----
3-------------------------------------
4-------------------------------------
5-------------------------------------
6-------------------------------------

1---3-5-3-2-------0-2-3-0-------------
2----------3-2-3---------3------------
3-------------------------------------
4-------------------------------------
5-------------------------------------
6-------------------------------------


1--------------------------7-5--------
2---8----7-8-8--7-8-8----8-----8-7-8--
3-7-----------------------------------
4-------------------------------------
5-------------------------------------
6-------------------------------------

1-5-5----5----5-5---5-5---5-8-7--7-5-5
2-------7----8-----8------------------
3-------------------------------------
4-------------------------------------
5-------------------------------------
6-------------------------------------

1---------
2-7-8-8---
3---------
4---------
5---------
6---------

1----------------5-5---5-7-8---7-8-8-7-8----8-7-5
2--8-7---5-7---8---------------------------------
3------------------------------------------------
4------------------------------------------------
5------------------------------------------------
6------------------------------------------------

1---------5-7-7--7-8-7--7-5-5--------
2-8---7-8------------------------7-8-
3------------------------------------
4------------------------------------
5------------------------------------
6------------------------------------

ESPERO LES GUSTE PARA CUALQUIER DUDA O SI NO LE ENTIENDES A ESTO
CONTACTAME EN MI CORREO ULISES636@HOTMAIL.COM AHI TE EXPLICARE CON
GUSTO
Envía el tono de "Las Mañanitas" a tu celular/móvil
Este fichero es trabajo propio de su transcriptor y representa su interpretación personal de la canción. El material contenido en esta página es
para exclusivo uso privado, por lo que se prohibe su reproducción o retransmisión, así como su uso para fines comerciales.
© LaCuerda.net · Aviso Legal · Privacidad