Tablatura para Guitarra de Canciones Populares: La Marcha de los Santos
Conexión · Inscripción
Letras y Acordes
Pantalla Completa
Imprimir
Versión Texto
Añadir Favorito
Otras Versiones

Mostrar Diagramas
Desfile Automático
Manipular Acordes
Formato del Texto

Canciones Populares
La Marcha de los Santos(TAB)
calidad:
xxxx0122
AUTOR: Popular
ALBUM: desconocido
Enviado por BENGOL
e||----------------|--------------|----------------------------|
B||----------------|--------------|----------------------------|
G||·---------------|--------------|----------------------------|
D||·---------------|--------------|----------------------------|
A||-------4--5--7--|-----4--5--7--|-----4--5--7--4-----4-------|
E||----5-----------|--5-----------|--5--------------5-----7----|

e||--------------|-----------------|--------------------------||
B||--------------|-----------------|--------------------------||
G||--------------|-----------------|-------------------------·||
D||--------------|-----------------|-------------------------·||
A||--4--4--------|-----4--7--7--5--|--4--4--5--7--4-----------||
E||--------7--5--|--5--------------|-----------------5--7--5--||




SALU2 A TODOS,

EN ESPECIAL A LOS CRXZADOS DE CHILE!!!
Envía el tono de "La Marcha de los Santos" a tu celular/móvil
Este fichero es trabajo propio de su transcriptor y representa su interpretación personal de la canción. El material contenido en esta página es
para exclusivo uso privado, por lo que se prohibe su reproducción o retransmisión, así como su uso para fines comerciales.
© LaCuerda.net · Aviso Legal · Privacidad