Tablatura para Guitarra de Canciones Populares: El Condor pasa
Conexión · Inscripción
Letras y Acordes
Pantalla Completa
Imprimir
Versión Texto
Añadir Favorito
Otras Versiones

Mostrar Diagramas
Desfile Automático
Manipular Acordes
Formato del Texto

Canciones Populares
El Condor pasa(TAB)
calidad:
xxxx0095
AUTOR: Canciones Populares  corregir
ALBUM: desconocido
Enviado por jeisson
Ritmo Huayno (marcha)
Autor: D. C. Robles
Tonalidades Am y Bm

SI LA toca en Bm

Intro
    Bm                D                    Bm F#7   Bm
e|-------------------2---5-5-2---7-5-7-5-7-2---2-0----
B|----------2-3-2-3-5------------------------------3-0
G|----4-3-4-------------------------------------------
D|--4-------------------------------------------------
A|----------------------------------------------------
E|----------------------------------------------------

     Bm                      D
 El amor, como un cóndor bajará...

e|-------------------------0-2------------------------
B|---------0-2-----3---2--3---------------------------
G|--4--3----------------------------------------------
D|4---------------------------------------------------
A|----------------------------------------------------
E|----------------------------------------------------
                   Bm  F#7         Bm
 Mi corazón  golpeará, después se irá

e|5-5-5-2----7--5-7-2--2--0---------------------------
B|-----------------------------3--0-------------------
G|----------------------------------------------------
D|----------------------------------------------------
A|----------------------------------------------------
E|----------------------------------------------------
                              D
 La luna en el desierto brillará...

e|-------------------------0--2-----------------------
B|---------0---2---3-2--3-----------------------------
G|--4--3----------------------------------------------
D|4---------------------------------------------------
A|----------------------------------------------------
E|----------------------------------------------------
                          Bm      F#7    Bm
 Tu vendrás, solamente un beso... me dejarás

e|5-5---2----7-5-7-5-----7--2-----2--0----------------
B|-------------------------------------3-0------------
G|----------------------------------------------------
D|----------------------------------------------------
A|----------------------------------------------------
E|----------------------------------------------------






       G
 Quien sabe... mañana donde iras...

e|2----7-7-----6-7-6-7--6---7-------------------------
B|----------------------------------------------------
G|----------------------------------------------------
D|----------------------------------------------------
A|----------------------------------------------------
E|----------------------------------------------------
       D              Bm
 Que harás... me pensarás?...

e|10-7-5------5-7---5-2-------------------------------
B|----------------------------------------------------
G|----------------------------------------------------
D|----------------------------------------------------
A|----------------------------------------------------
E|----------------------------------------------------
    G
 yo se que nunca volverás

e|2-7--5---7--5--7--5-7-------------------------------
B|----------------------------------------------------
G|----------------------------------------------------
D|----------------------------------------------------
A|----------------------------------------------------
E|----------------------------------------------------
            D             Bm    F#7    Bm
 mas pienso que... no viviré... cómo podré?

e|7--10--7---5------5-7-5-2-----2-0--3-0--------------
B|----------------------------------------------------
G|----------------------------------------------------
D|----------------------------------------------------
A|----------------------------------------------------
E|----------------------------------------------------


Intro
    Bm                D                    Bm F#7   Bm
e|-------------------2---5-5-2---7-5-7-5-7-2---2-0----
B|----------2-3-2-3-5------------------------------3-0
G|----4-3-4-------------------------------------------
D|--4-------------------------------------------------
A|----------------------------------------------------
E|----------------------------------------------------

Los mismos punteos pero, con la siguiente letra;

     Bm                       D
La angustia y el dolor me dejarás
                 Bm F#7    Bm
mi corazón, sufrirá, y morirá
                           D                         Bm     F#7    Bm
el amor como un cóndor volará... partirá y así nunca más... regresará

                                        D             Bm    F#7    Bm
Yo se que nunca volverás... mas pienso que... no viviré... como podré...

    Bm                     D
El amor como un cóndor bajara... hasta el final


* Se pueden hacer estos acordes,
para que suene más armónico y la magia del sonido
como alguna alteración será su trabajo.

  Bm Bm D G F#7
e|-2-7--5-7-6--
B|-3-7--7-8-5--
G|-4-7--7-7-6--
D|-------------
A|-------------
E|-------------
Envía el tono de "El Condor pasa" a tu celular/móvil
Este fichero es trabajo propio de su transcriptor y representa su interpretación personal de la canción. El material contenido en esta página es
para exclusivo uso privado, por lo que se prohibe su reproducción o retransmisión, así como su uso para fines comerciales.
© LaCuerda.net · Aviso Legal · Privacidad