Tablatura para Guitarra de Canciones Populares: Cumpleaños Feliz
Conexión · Inscripción
Letras y Acordes
Pantalla Completa
Imprimir
Versión Texto
Añadir Favorito
Otras Versiones

Mostrar Diagramas
Desfile Automático
Manipular Acordes
Formato del Texto

Canciones Populares
Cumpleaños Feliz(TAB)
calidad:
xxxx0225
AUTOR: Canciones Populares  corregir
ALBUM: desconocido
Enviado por Daniel
Pista 1
     G                        G                 D7
               Cum- ple-      am   ños  fe-     liz,     cum- ple-
     Q    Q    E    E         Q    Q    Q       H        E    E
E||----------------------||------------------|---------------------|
B||----------------------||------------------|---------------------|
G||----------------------||*------------0----|---------------------|
D||------------0----0----||*--2----0---------|--4--------0----0----|
A||----------------------||------------------|---------------------|
E||----------------------||------------------|---------------------|


  D7                G                G                C         Cm
  am   ños  fe-     liz,  to- dos    te   de-  se-    am   mos  cum- ple-
  Q    Q    Q       H     E   E      Q    Q    Q      Q    Q    E    E
-----------------|----------------|----------------|----------------------|
-----------------|----------------|--3----0--------|------------1----1----|
------------2----|--0-------------|------------0---|----------------------|
--2----0---------|--------0---0---|----------------|--4----2--------------|
-----------------|----------------|----------------|----------------------|
-----------------|----------------|----------------|----------------------|


  D7                G                     G
  am   ños  fe-     liz.     Cum ple      liz
  Q    Q    Q       H        E   E        H.
-----------------|--------------------||---------------||
--0--------------|--------------------||---------------||
-------0----2----|--0----------------*||--0------------||
-----------------|-----------0---0---*||---------------||
-----------------|--------------------||---------------||
-----------------|--------------------||---------------||
Envía el tono de "Cumpleaños Feliz" a tu celular/móvil
Este fichero es trabajo propio de su transcriptor y representa su interpretación personal de la canción. El material contenido en esta página es
para exclusivo uso privado, por lo que se prohibe su reproducción o retransmisión, así como su uso para fines comerciales.
© LaCuerda.net · Aviso Legal · Privacidad