Letra y Acordes de Camilo Sesto: Que hago con mi vida
Conexión · Inscripción
Letras y Acordes
Pantalla Completa
Imprimir
Versión Texto
Añadir Favorito
Otras Versiones

Mostrar Diagramas
Desfile Automático
Manipular Acordes
Formato del Texto

Camilo Sesto
Que hago con mi vida
calidad:
csex1031
AUTOR: Camilo Blanes
ALBUM: Amor sin Vértigo (1994)
Enviado por CASEP
INTRO
    A#m      Fm       F#       C#       D#m        A#m
E |---9-8-9----8-6-8----6-4-6----4-2-4----2-2-2--6-9-6-6-6-|
B |-6--------6--------4--------2--------4------------------|
G |--------------------------------------------------------|
D |--------------------------------------------------------|
A |--------------------------------------------------------|
E |--------------------------------------------------------|

      F#         F
E |-9-6-6-6--8-9-8-----11--11-9-8-9-|
B |---------------------------------|
G |------------------9--------------|
D |---------------------------------|
A |---------------------------------|
E |---------------------------------|

A#m           Fm
Un arco iris, una ilusión,
F#               C#
un espejismo,juramentos de amor
     D#m               A#m
Tú y yo sin temor a ningún control,
     F#                   F
el deseo desnudo, fue el abrigo de los dos.

  A#m            Fm
Entrega total, a pleno pulmón,
   F#                C#
volcanes de fuego en plena erupción.
   D#m                 A#m
Un día tras otro hasta que despertó
          F#                        F
tu piel infiel y tu instinto de traición.


CORO:
                A#
Qué hago con mi vida,
                    A#13  A#7
si la tuya ya no es mía,
          D#
porque no quiero vivir
                A#   Gm
el resto de mis días
            Cm
sembrando semillas de amor
D#     Gm            F
en corazones de alma fría.

                A#
Qué hago con mi vida,
                    A#13  A#7
si la tuya ya no es mía,
          D#
porque no quiero vivir
                A#   Gm
el resto de mis días
            Cm
sembrando semillas de amor
   F     A#m             Fm
en almas    que dejan la mia
F#      F
mmmmm vacia

   A#m                  Fm
No quiero amistad con la oscuridad,
    F#                   C#
después de la noche la aurora vuelve a brillar
     D#m                A#m         F#              F
con su resplandor... respiraré y al cielo le imploraré...

REPITE CORO:

¡Que hago con mi vida!

PUNTEO:

REPITE CORO:

                      ::::: CASEP (Club Camilo Sesto del Perú) :::::
                                    www.clubcamiloperu.com
Este fichero es trabajo propio de su transcriptor y representa su interpretación personal de la canción. El material contenido en esta página es
para exclusivo uso privado, por lo que se prohibe su reproducción o retransmisión, así como su uso para fines comerciales.
© LaCuerda.net · Aviso Legal · Privacidad