Letra y Acordes de Camilo Sesto: No hay nada mío
Conexión · Inscripción
Letras y Acordes
Pantalla Completa
Imprimir
Versión Texto
Añadir Favorito
Otras Versiones

Mostrar Diagramas
Desfile Automático
Manipular Acordes
Formato del Texto


Camilo Sesto
No hay nada mío
calidad:
csex1131
AUTOR: Camilo Blanes
ALBUM: Amor sin Vértigo (1994)
Enviado por CASEP
INTRO:
   Am    Em                  Am        Em
E |----8-7---------7-------7-8--8-10-8-7---------7--|
B |--------10-8-10----8-10---------------10-8-10----|
G |-------------------------------------------------|
D |-------------------------------------------------|
A |-------------------------------------------------|
E |-------------------------------------------------|

          F                                Fm         G
E |----10-12--10----12--10----12-13-10----12-13-10----10--|
B |-13-----------13--------13----------13----------13-----|
G |-------------------------------------------------------|
D |-------------------------------------------------------|
A |-------------------------------------------------------|
E |-------------------------------------------------------|

C
No, no hay nadie más
          Dm7
que te idolatre y adore como yo,
C
no, no hay nadie más
          Dm7
que dé su vida por ti como yo la doy.

   Am
No hay nada mío
       Dm7
que no sea para ti,
  Am
no hay nada tuyo
       Dm7              G       G7
que no sea parte de mí, nada....

C
No, nadie como yo
              Dm7
se te ha entregado y mimado así jamás,
  C
y más que mis palabras de amor
    Dm7
mis hechos te lo van a probar.

   Am
No hay nada mío
       Dm7
que no sea para ti,
  Am
no hay nada tuyo
       Dm7          F   G       G7
que no sea parte de mí, nada....

CORO:

   C          Am
Te amo y te extraño
          Em
desde que tengo edad de amar,
   C          Am
te amo y te extraño
     Em
como nunca imaginarás,
   G            G7
Te amo cada día más...
Te amo...
Am                  Em
más... que el cielo ama a la eternidad
Am                Em
más... que la esperanza a la felicidad
F                   Fm                C
más... que la oscuridad ama a la claridad,
       Dm7
Te amo como Dios
    F                 G
nos ama a los dos...y más...

                      ::::: CASEP (Club Camilo Sesto del Perú) :::::
                                    www.clubcamiloperu.com
Este fichero es trabajo propio de su transcriptor y representa su interpretación personal de la canción. El material contenido en esta página es
para exclusivo uso privado, por lo que se prohibe su reproducción o retransmisión, así como su uso para fines comerciales.

© LaCuerda.net · Aviso Legal · Privacidad