Tablatura para Guitarra de Camila: Todo Cambió
Conexión · Inscripción
Letras y Acordes
Pantalla Completa
Imprimir
Versión Texto
Añadir Favorito
Otras Versiones

Mostrar Diagramas
Desfile Automático
Manipular Acordes
Formato del Texto


Camila
Todo Cambió(TAB)
calidad:
cmla0028
AUTOR: Camila  corregir
ALBUM: desconocido
Enviado por Jesús
Aver les traigo esta nueva version que saque aver si los antipaticos
les gusta por fin esta cancion recuerden que no es lo mismo acustica
que electrica por lo tanto difieren los sonidos pero en fin dudas
cualquier correcion digame recuerden que lleva
CAPODASTRO en el 2DO traste.

o.Obimbiux..!!


e--1----1----6----6----3----5----8-----8----
b--1----1----6----6----3----5----8-----8----
g--2----2----7----6----3----5----9-----9----
d--3----1----8----8----5----7----10----8----
a--3----3----8----8----5----7----10----10---
E--1----1----6----6----3----5----8-----8----



Intro

e|------------------------------------------------------
b|--------------------------------------------8h10/6h8--
g|-------------------------------10-12S13-10------------
D|------10-10h12----------10-12-------------------------
A|-11h12------------10h12-------------------------------
E|------------------------------------------------------

e|----------------------------8/10/8--------------------
b|----------------------8h10--8/10/8---6h-------6s8-8---
g|--------10-12/13/10---------------------7---7------7--
D|---10-12----------------------------------------------
A|------------------------------------------------------
E|------------------------------------------------------

     ..::Opcional::..

e|--------------------
b|------6s8-8---------
g|----7--------5------
D|--------------------
A|--------------------
E|--------------------





VERSO 1
Todo cambió, cuando te ví
de blanco y negro a color, me convertí
y fue tan fácil, quererte tanto,
algo que no imaginaba,
fue entregarte mi amor con una mirada.

riff 0
e----------------------------1--
b----------------------------1--
g-10-------------------------2--
d-10h12-10-------------------3--
a-----------10h12---10---8---3--
E----------------------------1--

VERSO 2
F F7(riff 1) A#(riff 2) A#m
Todo tembló, dentro de mi riff 1 e-13/1--------- b-13/1--------- g-14/2--------- d------------- a------------- E------------- riff 2 e---x-6-8----- b---------6--- g------------- d------------- a------------- E-------------
F F7 A#(riff 3) A#m
el universo escribió, que fueras para mi riff 3 e-------------------- b-------------------- g---------10h12-10~-- d-8/10h12------------ a-------------------- E--------------------
Gm(Riff 4) Am(Riff 4)
y fue tan fácil quererte tanto riff 4 e-------------------- b-------------------- g--------10/1--------- d-10h12--10/1--------- a-------------------- E--------------------
A# Am(riff 11)
algo que no imaginaba riff 11 e--------------------- b--------------------- g-10/12-10------------ d----------10-10/12~-- a--------------------- E--------------------- fue perderme en tu amor simplemente pasó
C
y todo tuyo ya soy. CORO
A# C
Antes que pasé mas tiempo contigo amor
F F7
tengo que decir que eres el amor de mi vida.
A# C
Antes que te ame más, escucha por favor
F A#
déjame decir que todo te di.
Gm (riff 4)
Y no hay, como explicar
Am (riff 4)
pero menos, dudar
A# C
simplemente así lo sentí cuando te ví. RIFF 0 VERSO 2
F F7(riff 1) A# A#m(riff 5)
Me sorprendió todo de ti riff 5 e-13h15----------------- b-------13~-----13h15--- g----------------------- d----------------------- a----------------------- E-----------------------
F F7(riff 1) A# A#m
de blanco y negro a color, me convertí riff 1 e--13/1--------- b--13/1--------- g--14/2--------- d--13/1--------- a--15/3--------- E--15/3---------
Gm(riff 6) Am(riff 7)
se que no es fácil, decir te amo riff 6 riff 7 e-------------------- e---------------- b-------------------- b---------------- g-------------10/1--- g-------10~------ d-8/10-10h12--10/1--- d-10h12---------- a-------------------- a---------------- E-------------------- E----------------
A# Am(riff 12)
yo tampoco lo esperaba riff 12 e---------------------- b--13-/15~--------13--- g---------------------- d---------------------- a---------------------- E---------------------- pero así es el amor simplemente pasó y todo tuyo ya soy CORO
A# C
Antes que pasé mas tiempo contigo amor
F F7
tengo que decir que eres el amor de mi vida,
A# C
antes que te ame mas, escucha por favor
F A#
déjame decir que todo te di.
Gm (riff 6)
Y no hay, como explicar
Am (riff 6)
pero menos, dudar
A# C
simplemente así lo sentí, cuando te ví. e---------------------- b---------------------- g---------------------- d-10/12-10------------- a----------10-10h12~--- E---------------------- Todo cambió, cuando te vi... ACEPTO SUGERENCIAS
Este fichero es trabajo propio de su transcriptor y representa su interpretación personal de la canción. El material contenido en esta página es
para exclusivo uso privado, por lo que se prohibe su reproducción o retransmisión, así como su uso para fines comerciales.

© LaCuerda.net · Aviso Legal · Privacidad