Tablatura para Guitarra de Camila: Solo para tí
Conexión · Inscripción
Letras y Acordes
Pantalla Completa
Imprimir
Versión Texto
Añadir Favorito
Otras Versiones

Mostrar Diagramas
Desfile Automático
Manipular Acordes
Formato del Texto

Camila
Solo para tí(TAB)
calidad:
cmla0103
AUTOR: Camila  corregir
ALBUM: desconocido (2006)
Enviado por idmer
         Em              Dsus2*         Cadd9*
e|---------------|-------2------|-----------------|----------------------|
B|-------3-------|---------3----|---------3-------|-0---1-3--------------|
G|---------0-----|-----2------2-|-------0---0-----|-------------2/0---0--|
D|-----2-------2-|---0------0---|---0/2---------2-|---0-------0-----0----|
A|---2-------2---|-0------------|-3-----------3---|----------------------|
E|-0-------------|--------------|-----------------|-3-------3------------|
            Em            D             Cadd9*            Dsus2*
e|-----------|---0---|-2-----2-3-5-|-3-----------|-----------------|
B|-------3---|-------|-----3-------|---------3---|-3----3----3-----|
G|---------0-|-----0-|---2---------|-------0---0-|-2/4--2/4--2/4/2-|
D|-----2-----|-2-----|-0---------0-|---0/2-------|-----------------|
A|---2-------|-------|-------------|-3-----------|-----------------|
E|-0---------|-------|-------------|-------------|-----------------|

|--------------|
|--------------|
|-0------0-3-0-|
|---4--0-------|
|--------------|
|-----3--------|
HACEN LOS ARPEGIOS EN LA ESTROFA
Em7               Dsus2*                Cadd9*
Eres todo lo que pedía,  Lo q mi alma vacía
               e|----------------------|
               B|-0---1-3--------------|
               G|-------------2/0---0--|
Quería sentir  D|---0-------0-----0----|
               A|----------------------|
               E|-3-------3------------|

Em7                   Dsus2*                       Cadd9*
Eres lo que tanto esperaba, Lo que en sueños buscaba
                    e|-----------------------|
                    B|-0---1--3--0---1/0---0-|
                    G|-----------------------|
Y que en tidescubrí D|---0---0-----------0---|
                    A|-----------------------|
                    E|-3--------3--3---------|

Tú has llegado a encender Cada parte de mi almaCada espacio de mi ser
e|-------3-----------|-----0-----| |-------------------------|
B|-1-----------1-----|-3-------3-| |-----3-------3-------3---|
G|-----0-----0-----0-|-2---------| |-------0---2---2-------0-|
D|---2-----2-----2---|-0-0---0---| |---0---------------------|
A|-0-----------------|-----------| |-------------------2-----|
E|-------------------|-----------| |-3-------2-------0-------|
                                                   Cadd9*
Ya no tengo corazón ni ojos para nadie Solo       para ti
e|-------3-----------|          |-----0-----|
B|-1-----------1-----|          |-3-------3-|
G|-----0-----0-----0-|          |-2---------|
D|---2-----2-----2---|          |-0-0---0---|
A|-0-----------------|          |-----------|
E|-------------------|          |-----------|
Em7                  D                 Cadd9*                    G
eres el amor de mi vida,El destino lo sabia, Y hoy te puso ante mí
Em7                         D                            Cadd9*
Y cada vez que miro al pasado, Es que entiendo que a tu lado,
               G
Siempre pertenecí
Am                     D                    G            D/F#         Em7
Tú has llegado a encender, Cada parte de mi alma, Cada espacio de mi ser
                 C                 D
Ya no tengo corazón, ni ojos para nadie
         Cadd9
Solo para ti
          Em
Solo para ti
          Am
Solo para ti
          Em
Solo para ti

Cadd9              G               Cadd9*                        D
Esto es en verdad, Lo puedo sentir, Se que mi lugar, Es junto a ti…
(Cadd9 Em7 Cadd9* G)

Eres todo lo que pedía        Cadd9*=(032033)
Lo que no conocía             Dsus2*=(000230)
Y que en ti descubrí.
Envía el tono de "Solo para tí" a tu celular/móvil
Este fichero es trabajo propio de su transcriptor y representa su interpretación personal de la canción. El material contenido en esta página es
para exclusivo uso privado, por lo que se prohibe su reproducción o retransmisión, así como su uso para fines comerciales.
© LaCuerda.net · Aviso Legal · Privacidad