Tablatura para Guitarra de Camila: Perderte de nuevo
Conexión · Inscripción
Letras y Acordes
Pantalla Completa
Imprimir
Versión Texto
Añadir Favorito
Otras Versiones

Mostrar Diagramas
Desfile Automático
Manipular Acordes
Formato del Texto

Camila
Perderte de nuevo(TAB)
calidad:
cmla0042
AUTOR: Mario Domm
ALBUM: Todo Cambio (2006)
Enviado por Ricardo, basado en valentino
Que hay de nuevo
esta es mi 5ta trascripción
ke subo a la cuerda

Yo se ke ya hay varias
Transcripciones de esta canción
pero solo una de ellas es la que mas
se acerca a la original, pero es
de acordes y pues aquí les dejo esta
tablatura de esta canción de CAMILA.
voten por favor

Dice asi:

INTRO:

E---------------
A---------------
D--0h2----------
G------0h2------
B----------3----
e---------------

  G                   D
E-3----------------------------------------------
A-2----------------------------------------------
D-0----------------------------------------------
G-0-------------------2-----2--------------------
B-3--------------------3----3---(3)--------------
e-3--3------------------3---2--2-----------------
    ya había desilusión, dolor y resignación

   Em                     Am               D
E--------------------------------------------------
A-2----------------------0-------------------------
D-2----------------------2--2------------0---------
G-0-0--------------------2----2----------2---------
B-0---3-----------------(1)----(1)-------3--3------
e---------------------------------------------0/2-2
   el tiempo supo esperar y así la deje de amar

  G                   D
E--------------------------------------------
A--------------------------------------------
D-0------------------------------------------
G-0------------------(2)----2----------------
B-3--------------------3----3---(3)----------
e-3--3------------------3---2--2-------------
     no había mas que decir, había llegado el fin




  Em              Am                D
E---------------------------------------------
A--2------------------------------------------
D--2-2-------------2--------------------------
G--0---0-----------2--------------------------
B--0---------------1-1--------------3------3--
e------------------0---3--3-----------0/2-2---
     hacia dos años ya, que no me la encontraba

  G                          D
E----------------------------------------------
A-2--------------------------------------------
D-0---------------------(0)--------------------
G-0--0------------------(2)--------------------
B-3------3--------------(3)--------------------
e-3----3----------------(2)--------------------
    estaba aprendiendo como vivir


        G        Bm          Em
E-----------------------------------------------
A-----------------------------------------------
D--------0----------4----------2----------------
G--------0----------4----------0----------------
B--------3----------3----------0----------------
e--------3----------2----------0---0------------
  ya de ti me olvidaba cuando te vi


   G                     G   D  Em  D
E--------------------------------------
A--------------------------------------
D--0-----------------0--0--2--0--------
G--0-(0)-------------0--2--0--2--------
B--3----3------------3--3--0--3--------
e--3------3----------3--2--0-----------
   con la mirada desesperada


   G              D
E--------------------------------------
A--------------------------------------
D--0---------4-------------------------
G--0-----------2-----------------------
B--3---------------3---3---------------
e--3-------------3---------------------
   y fue tan fuerte volver a verte

   Em                     D
E-------------------------------------
A-------------------------------------
D--2----------------------------------
G--0--0----------------------2--------
B--0-----------------3-----3----------
e----------------------3/2------------
   sufrí tanto tiempo por ti

    G              Bm             G
E-------------------------------------
A-------------0/2---------------------
D--0---------------4---------0--------
G--0-----------------4-------0--------
B--3--3----------------------3--------
e--3----3--------------2-----3--3-----
    basto mirarte, recuperarte y saber



    D
E-------------------------------------
A-------------------------------------
D---0---0--0--0--0--0-----------------
G---2---2--2--2--2--2-----------------
B---3---3--3--3--3--3-----------------
e---2---2--2--2--2--2-----------------
   que te irías sin mi



  G              D
Y fue tan fuerte volver a quererte
 Em        D                       H
volver a creer en los dos B--3--1-(7)---
                          e--3--1-------
 Am             Bm
basto mirarte, volver amarte
   Am          D
para perderte de nuevo amor A---5/7--------------
                            D--------5/7--9-----


  G                   D                            Em
E------------------------------------------------------
A------------------------------------------------------
D-0-------------------------------------------------2--
G-0---------------(2)----2--------------------2-2-2-0--
B-3-----------------3----3---(3)--------------3-3-3-0--
e-3--3---------------3---2--2-----------------2-3-2-0-0
  senti tanta confusión, al  verte tan fria amor

                   Am                 D
E-----------------------------------------------------
A-------------------0---------------------------------
D-------------------2--2---------------0--------------
G-------------------2----2-------------2--------------
B-------------------1-----(1)----------3----3---------
e---------------------------------------------0/2-(2)-
 asi fue que comprendi que tu no eras para mi

   G                      D
E------------------------------
A------------------------------
D--0----------------------0----
G--0-0--------------------2----
B--3-----3----------------3----
e--3---3------------------2----
    estaba aprendiendo como vivir


        G        Bm          Em
E----------------------------------------------
A----------------------------------------------
D-------0----------4----------2----------------
G-------0----------4----------0----------------
B-------3----------3----------0----------------
e-------3----------2----------0---0------------
 ya de ti me olvidaba cuando te vi



   G                     G   D  Em  D
E--------------------------------------
A---------------------------------5/0--
D--0-----------------0--0--2-0---------
G--0-(0)-------------0--2--0-2---------
B--3----3------------3--3--0-3---------
e--3------3----------3--2--0-2---------
   con la mirada desesperada

  G              D
y fue tan fuerte volver a verte
  Em                   D
sufri tanto tiempo por ti
    G             Bm           Am
basto mirarte, recuperarte y saber
                D
que te irías sin mi

  G                  D
Y fue tan fuerte volver a quererte
    Em      D                      H
volver a creer en los dos B--3--1-(7)---
                          e--3--1-------
 Am             Bm
basto mirarte, volver amarte
   Am          D
para perderte de nuevo amor

E-------------------------------------------
A-3------2------0----------------2----------
D---2------0------2----------------0--------
G-----0------0------0----(0)-2-0-----0------
B-------3------3--------3------------(3)----
e---------------------0---------------(3)---
Envía el tono de "Perderte de nuevo" a tu celular/móvil
Este fichero es trabajo propio de su transcriptor y representa su interpretación personal de la canción. El material contenido en esta página es
para exclusivo uso privado, por lo que se prohibe su reproducción o retransmisión, así como su uso para fines comerciales.
© LaCuerda.net · Aviso Legal · Privacidad