Tablatura para Guitarra de Camila: De que me sirve la vida
Conexión · Inscripción
Letras y Acordes
Pantalla Completa
Imprimir
Versión Texto
Añadir Favorito
Otras Versiones

Mostrar Diagramas
Desfile Automático
Manipular Acordes
Formato del Texto

Camila
De que me sirve la vida(TAB)
calidad:
cmla0256
AUTOR: Camila  corregir
ALBUM: Dejarte de amar (2009)
Enviado por Gonzalo, basado en Fabian
Intro
       D                      A                G
e------2------]-------5-------5---]---5h7------3-----3---]
B------3------]---5h7---------5---]----------------3-----]
G------2------]---------------6---]--------------4-------]
D------0------]---------------7---]----------------------]
A------x------]---------------7---]----------------------]
E------x------]---------------5---]------------3---------]
               D
e---3h5--------2--------5---]
B--------------3---3h5------]
G--------------2------------]    x2
D--------------0------------]
A--------------x------------]
E--------------x------------]

       D                      A
e------2------]-------5-------5---]
B------3------]---5h7---------5---]
G------2------]---------------6---]
D------0------]---------------7---]
A------x------]---------------7---]
E------x------]---------------5---]
Estoy a punto de emprender un viaje
       G                              D
e---5h7------3-----3---]---3h5--------2--------5---]
B----------------3-----]--------------3---3h5------]
G--------------4-------]--------------2------------]
D----------------------]--------------0------------]
A----------------------]--------------x------------]
E------------3---------]--------------x------------]
      con rumbo hacia lo desconocido
       D                      A
e------2------]-------5-------5---]
B------3------]---5h7---------5---]
G------2------]---------------6---]
D------0------]---------------7---]
A------x------]---------------7---]
E------x------]---------------5---]
                               A
no se si algún día vuelva a verte
       G                              D
e---5h7------3-----3---]---3h5--------2--------5---]
B----------------3-----]--------------3---3h5------]
G--------------4-------]--------------2------------]
D----------------------]--------------0------------]
A----------------------]--------------x------------]
E------------3---------]--------------x------------]
 no es fácil aceptar haber perdido.


Bm                                F#m
Por mas que suplique no me abandones
G                            D
dijiste no soy yo es el destino
G                                 D
Entonces entendí que aunque te amaba
G                           D
tenia que elegir otro camino.

                      A
De que me sirve la vida
                   D
si eres lo que yo pido,
                      Em                         A
los recuerdos no me alcanzan pero me mantienen vivo

                      G
De que me sirve la vida
                 D
si no la vivo contigo
                       Em                            A
de que me sirve la esperanza si es lo ultimo que muere

y sin ti ya la he perdido.

  Dadd9
e--5-----------------------------------]
B--5------------------------5----------]
G--7----7-----7---7-----7-----7--------]
D--7--7-----7---7-----7---7------7-----]
A--5------5---------5--------------5---]
E--------------------------------------]

D                              A
Escucha bien amor lo que te digo
G                             D
pues creo no habrá otra ocasión
                              A
para decirte que no me arrepiento
G                              D
de haberte entregado el corazón.

Bm                                F#m
Por mas que suplique no me abandones
G                            D
dijiste no soy yo es el destino
G                                 D
Entonces entendí que aunque te amaba
G                           D
tenia que elegir otro camino.

                      A
De que me sirve la vida
                   D
si eres lo que yo pido,
                      Em                         A
los recuerdos no me alcanzan pero me mantienen vivo

                      G
De que me sirve la vida
                 D
si no la vivo contigo
                       Em                            A
de que me sirve la esperanza si es lo ultimo que muere
                        G          C   A
y sin ti ya la he perdidoooooooooooooooooo.



   Em      F#m        G
De que me sirve la vida
                   D
si eres lo que yo pido,
                      Em                         A
los recuerdos no me alcanzan pero me mantienen vivo

                 G    D
De que me sirve la vidaaaaa
                        Em                          A
de que me sirve la esperanza si es lo ultimo que muere

y sin ti ya la he perdido.
  Dadd9                              D
e--5---------------------------------5--]
B--5------------------------5--------7--]
G--7----7-----7---7-----7-----7------7--]
D--7--7-----7---7-----7---7-----7----7--]
A--5------5---------5-------------5--5--]
E---------------------------------------]

Se arpegia hasta que termina el primer coro de ahi en adelante es rasgueo.
Envía el tono de "De que me sirve la vida" a tu celular/móvil
Este fichero es trabajo propio de su transcriptor y representa su interpretación personal de la canción. El material contenido en esta página es
para exclusivo uso privado, por lo que se prohibe su reproducción o retransmisión, así como su uso para fines comerciales.
© LaCuerda.net · Aviso Legal · Privacidad