Tablatura para Guitarra de Camila: De Mí
Conexión · Inscripción
Letras y Acordes
Pantalla Completa
Imprimir
Versión Texto
Añadir Favorito
Otras Versiones

Mostrar Diagramas
Desfile Automático
Manipular Acordes
Formato del Texto


Camila
De Mí(TAB)
calidad:
cmla0301
AUTOR: Camila
ALBUM: Dejarte de amar (2010)
Enviado por Fernando
bueno esto lo saque de el unplugged espero que les guste
lleva capo en el 2do traste y si le pueden bajar medio tono
a todas sus cuerdas va el capo en el 3ro

e.--------------------------------------------------------------------
B.------0-----3--------0---------0-------0------0-2-0-2------2-------2
G.-----2-----0----0--0-0--4--4---4------2------0-------2------0-----0-
D.-2s4------0---0---------4---4-----2s4-------0----------------2---2-
A.---------2--------------2------------------2------------------2-2-
E.--------3---------------------------------3--------------------0-

Add11/B
Nunca había sentido algo así,
Em
la vida me mantuvo siempre en paz,
G
llegaste a abrir las puertas del dolor
Dsus2           Asus2
y a regalar la soledad.
Add11/B
Tu piel envenenó mi corazón,
Em
dejándome en completa oscuridad
G
y así en lugar de olvidarte yo,
Dsus2             Asus2
te fui queriendo mucho más.
Em
Y ahora estás aquí.
Add11/B
Viéndome sufrir.
G
Dime, ¿cómo debo hacer
                      Dsus2
para olvidarme de tus besos
           Asus2
y sacarte para siempre...
 Em       Add11/B   Em    F#sus4
De mi... De mi... De mi...
Add11/B
Lo supe en el momento en que te vi,
Em
quererte iba a dolerme de verdad,
G
pero volví a mirarte y comprendí,
Dsus2             Asus2
que iría contigo hasta el final.

Em
Y ahora estás aquí.
Add11/B
Viéndome sufrir.
G
Dime, ¿cómo debo hacer
                      Dsus2
para olvidarme de tus besos
           Asus2
y sacarte para siempre...
 Em       Add11/B   Em    F#sus4
De mi... De mi... De mi...

G
Intente alejarme.
Bm
No pensarte más, no pensarte más.
G
Me dolió entregarme,
F#sus4
como nunca... lo hice jamás.
e.---------------------------------------------------------------
B.---------------------------------------------------------------
G.---------------------0-0-------------------------------0-0-2-4-
D.-0-0-2-2-0-0(2s3)-2-3----2-3-0----------0-2-3-2-0-2-2-3--------
A.-------------------------------2--2-0(2)-----------------------
E.---------------------------------2-2---------------------------

e.-----------------------------0--2-2-2-2-2-3-2-2-2-2-5-4-2-0----
B.------2-3-2---2-3-2-----0-2-3-3--------------------------------
G.-4-4-4-----2-4-----2-4-4---------------------------------------
D.---------------------------------------------------------------
A.---------------------------------------------------------------
E.---------------------------------------------------------------

e.---2-2-2-2-2-3-2-

G        Bm       G         Bm
de mi... de mi... de mi... de mi...

Add11/B     Dsus2          Asus2         F#sus4
e.- -0-0-6  e.- -0-0-0-6   e.- -0-0-6    e.- -0-X-0-0-6         C
B.-C-0-x-5  B.-C-0-0-0-5   B.-C-0-0-5    B.-C-0-X-0-X-5         U
G.-A-0-0-4  G.-A-0-0-0-4   G.-A-0-X-4    G.-A-0-X-0-X-4         E
D.-P-0-x-3  D.-P-0-X-0-3   D.-P-0-X-3    D.-P-0-X-0-X-3         R
A.-O-0-x-2  A.-O-0-0-X-2   A.-O-0-0-2    A.-O-0-X-0-0-2         D
E.- -0-0-1  E.- -0-0-0-1   E.- -0-0-1    E.- -0-X-0-0-1         A
     1 2         1 2 3          1 2           1 2 3 4     TRASTES
Este fichero es trabajo propio de su transcriptor y representa su interpretación personal de la canción. El material contenido en esta página es
para exclusivo uso privado, por lo que se prohibe su reproducción o retransmisión, así como su uso para fines comerciales.

© LaCuerda.net · Aviso Legal · Privacidad