Acordes de Guitarra » C »Callejeros » Callejero de Boedo (Tab)

Callejero de Boedo
Callejeros

Letras, Acordes y Tabs para Guitarra, Bajo y Ukulele

  •        FA# SI FA# DO# (X 2)
    
     LA#                SI        FA#                 DO#
    Ahora que estás encerrado y anclado en la sombra, sin más.
     LA#                        SI            FA#                DO#
    Ahora que el cielo es cielo razo y no hay caso, no te esuchan más...
          FA#          DO#       FA#              DO#
    San Lorenzo va a jugar y vos no vas a poder estar.
          FA#        DO#         FA#              DO#
    En silencio llorarás, no hay donde puedas escapar.
    
    Devoto no es un viaje de egresados ni el sueño dorado de mamá.
    Pero peor es quedar tirado en la calle de un balazo,
    sangrando sin parar.
    Callejeros va a tocar la milonga que te trajo acá.
    En silencio llorarás, no hay donde puedas escapar.
    
    SOLO: SI FA# DO# SI DO# FA# DO#
    
    SI          LA#         RE#  
    
  • Intro: F# F# G  F#
    A#m B F# D# (X 2)
    
    
    
     A#m                  B        F#                      C#
    Ahora que estás encerrado y anclado en la sombra, sin más.
     A#m                         B             F#                   C#
    Ahora que el cielo es cielo razo y no hay caso, no te escuchan más...
          F#            C#       D#m              C#
    San Lorenzo va a jugar y vos no vas a poder estar.
    En silencio llorarás, no hay donde puedas escapar.
    
       A#m                       B            F#                C#
    Devoto no es un viaje de egresados ni el sueño dorado de mamá.
    Pero peor es quedar tirado en la calle de un balazo,
    sangrando sin parar.
    
          F#           C#       D#m                C#
    Callejeros va a tocar la milonga que te trajo acá.
    
  • e)-------------------------------------------
    B)-------------------------------------------
    G--------3-4-6-4-3-3-3h4p3-------------------
    D)---3h4-------------------5-4---------------
    A)-----------------------------5-4-2-1-------
    E)-------------------------------------3-2~--
    
    e)-------------------------------
    B)-------------------------------
    G-------3-4-6-4-3~----3-4-6-4-3~-
    D)----4-------------4------------
    A)-------------------------------
    E)-------------------------------
    
    e)---------------------------------------------
    B)---------------------------------------------
    G-------3-4-6-4-3-3-3h4p3----------------------
    D)---5h4-------------------5-4---------------4-
    A)-----------------------------5-4-2-1-------4-
    E)-------------------------------------3-2~--2-
    
  • e|---------------------------------------------------------|
    B|---------------------------------------------------------|
    G|-----3-4-6-4-3h4p3h4p3-----------------------------------|
    D|-4h5-------------------5-4-------------------------------|
    A|---------------------------5-4-2-1-----------------------|
    E|-----------------------------------2h3p2-----------------|
    
    e|---------------------------------------------------------|
    B|---------------------------------------------------------|
    G|---------------------------------------------------------|
    D|---------------------------------------------------------|
    A|-----1-2-4-4s5-4-2-1h2p1h2p1h2p1-------------------------|
    E|-2h3-----------------------------3-2---------------------|
    
    Segunda parte hace punteo con distorcion estilo flamenco.*-
    
    F# G .-x2 F#~~~~
    
    Intro de Saxo
    
    
  • (F#/G) x3 F#...
    
    1|------------------------------------------------------------|
    2|-11-------------------------------11-11---------------------| x2
    3|----13-10-10-11--13-13-11-10-11-13------13-10-10-13-11-10...|
    
    
     A#                  B
    Ahora que estas encerrado
         F#                      C#
    y anclado en las sombras sin mas
     A#                         B
    Ahora que el cielo es cielorrazo
           F#                  C#
    no hay caso no te escuchan más
    
    
          F#            C#
    San Lorenzo va a jugar
          D#m              C#
    
  • +
    ¡Colabora con nosotros!
    Envíanos tu versión de esta canción

Letra de Callejero de Boedo
Ahora que estás encerrado y anclado en la sombra, sin más.
Ahora que el cielo es cielo razo y no hay caso, no te esuchan más...
San Lorenzo va a jugar y vos no vas a poder estar.
En silencio llorarás, no hay donde puedas escapar.
Devoto no es un viaje de egresados ni el sueño dorado de mamá.
Pero peor es quedar tirado en la calle de un balazo,
sangrando sin parar.
Callejeros va a tocar la milonga que te trajo acá.
En silencio llorarás, no hay donde puedas escapar.
El infierno tiene dirección
y vos la conocés bien por no sentir,
por no sentir, el calor de una mujer.
Callejeros va a tocar la milonga que te trajo acá.
En silencio llorarás, no hay donde puedas escapar.
San Lorenzo va a jugar y vos no vas a poder estar.
En silencio llorarás, no hay donde puedas escapar.
San Lorenzo va a jugar ...
Callejeros va a tocar...
Callejeros va a tocar...
Bueno, escuchen bien la canción que fue, como varias de 'Presión', jodidas de sacar, así que
cualquier duda que tenga o pedido de algún otro tema de bandas del estilo o de la misma
banda, escríbanme a alan_heroico@yahoo.com.ar y voy a hacer lo posible por ayudarlos.




[Callejero de Boedo chords][Callejero de Boedo cifra]
© LaCuerda.net · aviso legal · privacidad · es · en · pt · contacto