Tablatura para Bajo de Caifanes: el Negro Cósmico
Conexión · Inscripción
Letras y Acordes
Pantalla Completa
Imprimir
Versión Texto
Añadir Favorito
Otras Versiones

Mostrar Diagramas
Desfile Automático
Formato del Texto

Caifanes
el Negro Cósmico(BAJ)
calidad:
caif0223
AUTOR: Saul Hernández, Saül Hernández
ALBUM: El Diablito (1990)
Enviado por Victor
Esta es mi version de "el negro cosmico"
hay que oirla bien para agarrar los tiempos.

Intro                 Riff 1
G|---------------------|--------------|
D|----------7-5h7-7-7--|---7-5h7-7-7--| x4
A|–12/0---0------------|-0------------|
E|---------------------|--------------|

Riff 2
G|------------------|
D|----5-3h5-5-5-5---| x4
A|–3----------------|
E|------------------|

Bridge
G|-----------------------------------|
D|-----------------------------------|
A|-0---2---3---5---7---9---10---12---|
E|-----------------------------------|

Riff 1
G|--------------|
D|---7-5h7-7-7--| x4
A|-0------------|
E|--------------|

Riff 2
G|------------------|
D|----5-3h5-5-5-5---| x3
A|–3----------------|
E|------------------|
G|--------------------------------|
D|----5-3h5-5-5-5---------3-3-5-5-| x1 (adorno)
A|–3--------------3-3-5-5---------|
E|--------------------------------|

Bridge 2
G|---------------------------------------------------|
D|---------3-3-3-2---3-----------3-3-3-2---3---------| x2
A|-----------------3---------------------3-----------|
E|-1---1-1---------------1---1-1---------------7-0---|

Verso
G|--------------|
D|---7-5h7-7-7--| x4
A|-0------------|
E|--------------|

G|------------------|
D|----5-3h5-5-5-5---| x3
A|–3----------------|
E|------------------|

G|-----------------------|
D|----5-3h5-5-5-5--------| x1 (adorno en ultimo tiempo)
A|–3---------------3-2-1-|
E|-----------------------|

Solo (igual que verso)
G|--------------|
D|---7-5h7-7-7--| x4
A|-0------------|
E|--------------|

G|------------------|
D|----5-3h5-5-5-5---| x3
A|–3----------------|
E|------------------|

G|-----------------------|
D|----5-3h5-5-5-5--------| x1 (adorno en ultimo tiempo)
A|–3---------------3-2-1-|
E|-----------------------|

Bridge 2
G|---------------------------------------------------|
D|---------3-3-3-2---3-----------3-3-3-2---3---------| x2
A|-----------------3---------------------3-----------|
E|-1---1-1---------------1---1-1---------------7-0---|

Final Riff (igual que verso)
G|--------------|
D|---7-5h7-7-7--| x4
A|-0------------|
E|--------------|

G|------------------|
D|----5-3h5-5-5-5---| x3
A|–3----------------|
E|------------------|

G|-----------------------|
D|----5-3h5-5-5-5--------| x1 (adorno en ultimo tiempo)
A|–3---------------3-2-1-|
E|-----------------------|

Outro
G|---5---4----------|
D|-5---5---7-5------|
A|–------------0----|
E|------------------|

Cualquier duda o sugerencia a mi email manu_mx@hotmail.com

Saludos!
Envía el tono de "el Negro Cósmico" a tu celular/móvil
Este fichero es trabajo propio de su transcriptor y representa su interpretación personal de la canción. El material contenido en esta página es
para exclusivo uso privado, por lo que se prohibe su reproducción o retransmisión, así como su uso para fines comerciales.
© LaCuerda.net · Aviso Legal · Privacidad