Letra y Acordes de Caifanes: Aquí no es así
Conexión · Inscripción
Letras y Acordes
Pantalla Completa
Imprimir
Versión Texto
Añadir Favorito
Otras Versiones

Mostrar Diagramas
Desfile Automático
Manipular Acordes
Formato del Texto

Caifanes
Aquí no es así
calidad:
caif0081
AUTOR: Alfonso Andre, Saul Hernández, A. Marcovich
ALBUM: El Nervio del Volcan (1994)
E ---------------------------------------------------
B -----------------------------------------------6-6-
G 7-7-7-7-5-5-5-7-7-5-3---3-----3---7-7-7-7-5-5-5---7
D ---------------------3-5-5-3-5---------------------
A ---------------------------------------------------
E ---------------------------------------------------

E ----------------------------------------------------
B ----------------------------------------------------
G 7-7-7-7-5-5-5-7-7-5-3---3-----3---7-7-7-7-5-5-------
D ---------------------3-5-5-3-5---------------7-8-7-5
A ----------------------------------------------------
E ----------------------------------------------------


A#      F  Gm         A#     F    Gm
Vienes caminando y no sabes tu destino
A#      F     Gm                A#     F     Gm
conquistando suenios suenias llegar a ser deidad
A#      F  Gm          A#      F   Gm
Sigues caminando sobre viejos territorios
A#   F     Gm           A#     F   Gm             
ignorando fuerzas que jamas entenderas
F                                    Gm
Y vienes desde alla donde no sale el sol donde no hay calor
F                               Gm
donde la sangre nunca se sacrifico por un amor
       Dm         C
pero aqui no es asi
A#    F
ah ah ah
A#      F  Gm        A#        F    Gm
Sigues caminando ignorando sagrados ritos
A#    F    Gm                 A#     F   Gm
pisoteando sabios templos de amor espiritual
A#     F   Gm                A#     F       Gm
Larga vida sigue velando el suenio de un volcan
A#      F       Gm         A#       F    Gm
para un alma en pena cada piedra es un altar
F                                    Gm
Y vienes desde alla donde no sale el sol donde no hay calor
F                               Gm
donde la sangre nunca se sacrifico por un amor
       Dm         C
pero aqui no es asi
A#    F
ah ah ah
(parte de bajo)
G F D
G F D
G F A#
(solo)
E ------------------
B ------------------
G ------------------
D 10-8-7------------
A ------10-8-7-10-8-
E ------------------

E ------------------------------------------------------
B ------------------------------------------------------
G ------10-10-9-10-12-10------10-10-9-10-11-12-10--10-12
D ----10----------------10--10-------------------12-----
A 8-12--------------------12----------------------------
E ------------------------------------------------------

E --------------------------------------------------------
B --10-11-10--11-10--11-10--------------------------------
G 12--------12-----12-----12-10-9-7-10-10----10-----------
D ---------------------------------------7-10--10-12-13-12
A --------------------------------------------------------
E --------------------------------------------------------

                               <   estas notas se tocan juntas   >
E -----------------------------10-12-13-13-13-13-13-12-10-12-10-8-
B --11-10-------------------11-11-13-15-15-15-15-15-13-11-13-11-10
G -------12-10------------10--------------------------------------
D 10----------12-13-12--12----------------------------------------
A --------------------13------------------------------------------
E ----------------------------------------------------------------


F                                    Gm
Y vienes desde alla donde no sale el sol donde no hay calor
F                               Gm
donde la sangre nunca se sacrifico por un amor
F                                    Gm
Y vienes desde alla donde no sale el sol donde no hay calor
F                               Gm
donde la sangre nunca se sacrifico por un amor


< figura que va arriba de los versos (varia cada vuelta) >

E ------------------------
B ------------------------
G ------------------------
D --------------5-5-5-5-5-
A -5-8-5-5-8-5-8-8-8---8-8
E 6-----8-----------------

====================================================
Copiado de La Clasica Condor-Cueva
(http://www.rodpas.com.mx:80/~eduardo/)
Transcripcion de Eduardo Guerrero 
(al391626@academ02.mor.itesm.mx)
Envía el tono de "Aquí no es así" a tu celular/móvil
Este fichero es trabajo propio de su transcriptor y representa su interpretación personal de la canción. El material contenido en esta página es
para exclusivo uso privado, por lo que se prohibe su reproducción o retransmisión, así como su uso para fines comerciales.
© LaCuerda.net · Aviso Legal · Privacidad