Tablatura para Guitarra de Café Tacuba: Eres
Conexión · Inscripción
Letras y Acordes
Pantalla Completa
Imprimir
Versión Texto
Añadir Favorito
Otras Versiones

Mostrar Diagramas
Desfile Automático
Manipular Acordes
Formato del Texto

Café Tacuba
Eres(TAB)
calidad:
tacb0541
AUTOR: E. Del Real
ALBUM: Cuatro Caminos
Enviado por Marvin
Si no fueron claras mis palabras para ti (Yordania),
Aquí esta en síntesis lo que ERES para mi.

Intro.
Am        C            E       E7 x2
-------------------------------------------------------------------------

  Am        C            E       E7
e|---------0-------------------------0------|
B|-------1---1-----1-----------0-3-----3----|
G|-----2-------0-------------1-----1-----1--| x2
D|---2-----------2---------2----------------|
A|-0-----------------0-1-2------------------|
E|------------------------------------------|

   Eres                  lo que mas quiero en este mundo eso
  Am        C            E       E7
e|---------0-------------------------0------|
B|-------1---1-----1-----------0-3-----3----|
G|-----2-------0-------------1-----1-----1--|
D|---2-----------2---------2----------------|
A|-0-----------------0-1-2------------------|
E|------------------------------------------|

   Eres                  mi pensamiento más profundo también
  Am        C            E       E7
e|---------0-------------------------0------|
B|-------1---1-----1-----------0-3-----3----|
G|-----2-------0-------------1-----1-----1--|
D|---2-----------2---------2----------------|
A|-0-----------------0-1-2------------------|
E|------------------------------------------|

   Eres                tan solo dime lo que hago aquí me
   Dm                  E         E7
e|-------1--------3-0----------------0------|
B|-----3---3---3-------------0---3-----3----|
G|---2-------2-------------1---1---1-----1--|
D|-0---------------------2------------------|
A|---------------------2--------------------|
E|------------------------------------------|

  Tienes
  Am        C            E       E7
e|---------0-------------------------0------|
B|-------1---1-----1-----------0-3-----3----|
G|-----2-------0-------------1-----1-----1--|
D|---2-----------2---------2----------------|
A|-0-----------------0-1-2------------------|
E|------------------------------------------|

Eres                     cuando  despierto lo primero eso
  Am        C            E       E7
e|---------0-------------------------0------|
B|-------1---1-----1-----------0-3-----3----|
G|-----2-------0-------------1-----1-----1--|
D|---2-----------2---------2----------------|
A|-0-----------------0-1-2------------------|
E|------------------------------------------|

   Eres                  lo que a mi vida le hace falta si no
  Am        C            E       E7
e|---------0-------------------------0------|
B|-------1---1-----1-----------0-3-----3----|
G|-----2-------0-------------1-----1-----1--|
D|---2-----------2---------2----------------|
A|-0-----------------0-1-2------------------|
E|------------------------------------------|

   vienes              lo único precioso que en mi mente habita
   Dm                  E         E7
e|-------1--------3-0----------------0------|
B|-----3---3---3-------------0---3-----3----|
G|---2-------2-------------1---1---1-----1--|
D|-0---------------------2------------------|
A|---------------------2--------------------|
E|------------------------------------------|

  Hoy
  Am        C            E       E7
e|---------0-------------------------0------|
B|-------1---1-----1-----------0-3-----3----|
G|-----2-------0-------------1-----1-----1--|
D|---2-----------2---------2----------------|
A|-0-----------------0-1-2------------------|
E|------------------------------------------|

Dm                     E                     Am     C
Que mas puedo decirte, talvez puedo mentirte sin razón
Dm                     G                                Am  C   E...
Pero lo que hoy siento, es que sin ti estoy muerto pues eres...

Lo que más quiero en este mundo eso

    Eres
e|---------0-------------------------0------|
B|-------1---1-----1-----------0-3-----3----|
G|-----2-------0-------------1-----1-----1--| x2 Solo Guitarra I
D|---2-----------2---------2----------------|
A|-0-----------------0-1-2------------------|
E|------------------------------------------|

(Guitarra I y Guitarra II)
  Am        C            E       E7
e|---------0-------------------------0------|
B|-------1---1-----1-----------0-3-----3----|
G|-----2-------0-------------1-----1-----1--| x3 Guitarra I y II
D|---2-----------2---------2----------------|
A|-0-----------------0-1-2------------------|
E|------------------------------------------|

Solo Guitarra II (rasgueando un nivel suave las primeras cuerdas)
Am        C            E         E7
Eres                   el tiempo que comparto eso
Am        C            E         E7
Eres                   lo que la gente promete cuando se
Dm        C            E         E7
Quiere                 mi salvación mi esperanza y mí
Am  C  E  E7
Fe

   Soy                   el que quererte quiere como nadie
  Am        C            E       E7
e|---------0-------------------------0------|
B|-------1---1-----1-----------0-3-----3----|
G|-----2-------0-------------1-----1-----1--|
D|---2-----------2---------2----------------|
A|-0-----------------0-1-2------------------|
E|------------------------------------------|

   Soy                   el que te llevaría el sustento día
  Am        C            E       E7
e|---------0-------------------------0------|
B|-------1---1-----1-----------0-3-----3----|
G|-----2-------0-------------1-----1-----1--|
D|---2-----------2---------2----------------|
A|-0-----------------0-1-2------------------|
E|------------------------------------------|

   Día día día         el que por ti daría la vida ese
   Dm                  E         E7
e|-------1--------3-0----------------0------|
B|-----3---3---3-------------0---3-----3----|
G|---2-------2-------------1---1---1-----1--|
D|-0---------------------2------------------|
A|---------------------2--------------------|
E|------------------------------------------|

   Soy
  Am        C            E       E7
e|---------0-------------------------0------|
B|-------1---1-----1-----------0-3-----3----|
G|-----2-------0-------------1-----1-----1--|
D|---2-----------2---------2----------------|
A|-0-----------------0-1-2------------------|
E|------------------------------------------|

Dm                   E                         Am        C
Aquí estoy a tu lado, y espero aquí sentado hasta el finaal

Dm                  G                               Am   C  E...
no te has imaginado, lo que por ti he esperado pues eres...

lo que yo amo en este mundo eso

   eres                  cada minuto en lo que pienso eso
  Am        C            E       E7
e|---------0-------------------------0------|
B|-------1---1-----1-----------0-3-----3----|
G|-----2-------0-------------1-----1-----1--|
D|---2-----------2---------2----------------|
A|-0-----------------0-1-2------------------|
E|------------------------------------------|

   Eres                  lo que mas cuido en este mundo eso
  Am        C            E       E7
e|---------0-------------------------0------|
B|-------1---1-----1-----------0-3-----3----|
G|-----2-------0-------------1-----1-----1--|
D|---2-----------2---------2----------------|
A|-0-----------------0-1-2------------------|
E|------------------------------------------|

   Eres...
  Am        C            E       E7
e|---------0-------------------------0------|
B|-------1---1-----1-----------0-3-----3----|
G|-----2-------0-------------1-----1-----1--|
D|---2-----------2---------2----------------|
A|-0-----------------0-1-2------------------|
E|------------------------------------------|

-------------------------------------------------------------------------
Y para la Guitarra II aquí están las notas.

Am    C
eres,
E          E7
lo que mas quiero en este mundo
    Am     C
eso eres,
E        E7
mi pensamiento mas profundo,
        Dm  D5 “Dsus4  D5”     “X” Estas notas solo un rasgueo
también eres,
E         E7
tan solo dime lo que hago
          Am    C   E   E7
aquí me tienes.


Am    C
eres,
E          E7
cuando despierto lo primero,
    Am    C
eso eres,
E            E7
lo que a mi vida le hace falta
        Dm  D5 “Dsus4  D5”   “X” Estas notas solo un rasgueo
si no vienes
E             E7
lo unico, preciosa,  que en mi mente habita
 Am C E  E7
hoy

Dm                    E                       Am     C
Que mas puedo decirte, tal vez puedo mentirte sin razón,

Dm                     G
pero lo que hoy siento, es que sin ti
                  Am  C  E...
estoy muerto pues eres...

                                     (SOLO ARPEGEO DOS VECES)
Lo que mas quiero en este mundo eso eres.

LUEGO ARPEGEO Y ACORDES x3
  Am  C  E  E7


En esta parte los acordes van algo apagados
(Tocar las primeras cuerdas un poco suave)

Am      C
Eres,
E         E7
el tiempo que comparto,
    Am     C
eso eres,
E          E7                     Dm  D5  “Dsus4 D5”  “solo un rasgueo”
lo que la gente promete cuando se quiere,

E          E7                    Am   C  E   E7
mi salvación, mi esperanza  y mi fe.


SE UNE ARPEGEO CON ACORDES

Am     C
Soy,
E         E7                     Am   C
el que quererte quiere como nadie soy,
E           E7                     Dm D5  “Dsus4 D5”   “solo un rasgueo”
el que te llevaría el sustento día a día, día a día,
E          E7                   Am   C  E  E7
el que por ti daría la vida ese soy.

Dm                   E                         Am        C
Aquí estoy a tu lado, y espero aquí sentado hasta el finaal

Dm                  G                               Am  C  E...
no te has imaginado, lo que por ti he esperado pues eres...
                                 Am    C
lo que yo amo en este mundo eso eres

E      E7                        Am      C
cada minuto en lo que pienso eso eres...
E          E7
lo que mas cuido en este mundo
      Am   C  E  E7
eso eres....
-------------------------------------------------------------------------
Las notas raras.

  D5   Dsus4
e|-0-----3--|
B|-3-----3--|
G|-2-----2--|
D|-0-----0--|
A|----------|
E|----------|
Envía el tono de "Eres" a tu celular/móvil
Este fichero es trabajo propio de su transcriptor y representa su interpretación personal de la canción. El material contenido en esta página es
para exclusivo uso privado, por lo que se prohibe su reproducción o retransmisión, así como su uso para fines comerciales.
© LaCuerda.net · Aviso Legal · Privacidad