Tablatura para Guitarra de Bon Jovi: Como yo nadie te ha amado
Conexión · Inscripción
Letras y Acordes
Pantalla Completa
Imprimir
Versión Texto
Añadir Favorito
Otras Versiones

Mostrar Diagramas
Desfile Automático
Manipular Acordes
Formato del Texto

Bon Jovi
Como yo nadie te ha amado(TAB)
calidad:
bjov0017
AUTOR: jon bon jovi
ALBUM: desconocido
Enviado por koppe
Pss aquí en la siguiente trascripción de su servidor tocada y cantada
muy pero muy particularmente por algunos de nosotros (hablo de este
lado de la moneda). Con saludo especial para el pablito (si es que
lee esto), para Lázaro (buen cantante heee sin sarcasmo alguno) el yi-yo
 y: the corner boy’s esperando y les guste…
…a también la canción….allí va:


Aquí los acordes:
                            E  B  G  D  A  E

Esus4                       0  0   1   4   2  0
B                           2  4   4   4   2  2
Bm                          2  3   4   4   2  2
A                           0  2   2   2   0  0
Am                          0  1   2   2   0  0
E                           0  0   1   2   2  0
C#m                         4  5   6   6   4  4

INTRO:


Esus4        B    Bm        A   Am           E      B

e|---------------|---------7---|-----------------|------------------|
B|-9--9----9--7--|--7--7/9---5-|-5----5----------|------------------|
G|---------------|-------------|--------6----2/4-|--4/6--4----------|
D|---------------|-------------|----7-----7------|----------4/6--4--|
A|-7--7--7----6--|--5--5-----0-|-0---------------|------------------|
E|---------------|-------------|-----------------|------------------|

e|---------------------------|
B|---------------------------|
G|----------4-6-6/8-6-4------|
D|------4h6-------------6----|
A|--4h6----------------------|
E|---------------------------|



Esus4                  B
 Yo no vi las flores marchitar
Bm                      A
 Ni ese frío en tus ojos al mirar
Am                 E        B
 No, no vi la realidad, me ibas a dejar


Esus4
 Dicen que la vida baby
  B
 No es como la ves
Bm              A
 Para aprender hay que caer
Am           E                 B
 Para ganar hay que perder lo di todo por ti






PRE-CORO 1:

A
Llore y llore
    C#m                 B
Y jure que no iba a perderte
   A
Trate y trate
     C#m                    B
De negar este amor tantas veces baby


CORO 1:

        E                   B
Si mis lágrimas fueron en vano
       C#m                 A
Si al final yo te ame demasiado
     E
Como yo
      B       A
Como yo nadie te ha amado.



Esus4            B
 Cada hora una eternidad
Bm                  A
 Cada amanecer un comenzar
Am         E
 Ilusiones nada más
      B
 Que fácil fue soñar



Esus4             B
Tantas noches de intimidad
Bm        A
Parecían no acabar
Am         E                B
Nos dejamos desafiar y hoy nada es igual



PRE-CORO 2:

A                   C#m
Se que en verdad el amor
                  B
Al final siempre duele
       A
No lo pude salvar
       C#m                B
Y hoy voy a pagarlo con creces baby





CORO 1…


CORO2:

      E                 B
Esta vez la pasión ha ganado
      C#m           A
Y por eso sigo esperando
     E
Como yo
     B         A
Como yo nadie te ha amado…       uhh      uuuuuhhhh

SOLO:

    E             B                     C#m              A
e|-------------------|------------------------------------------
B|-------------------|------------------------------------------
G|-9h11-9h11-9h11-9--|-12h11b9--12h11b9----9--------------------
D|-------------------|------------------12---12-11-12-11-9------
A|-------------------|------------------------------------------
E|-------------------|------------------------------------------
              E                B
E|-----------------|------------------9-10-11-12-|-12-11-9------
B|-----------------|---------10-11-12------------|--------------
G|---------9-9h11--|-9h11-12---------------------|--------------
D|-9h11-12---------|-----------------------------|--------------
A|-----------------|-----------------------------|--------------
E|-----------------|-----------------------------|--------------
  A
E|-12-11-9----9------------------------------------------------|
B|---------12---12----11-12-11-9-11-9-------9------------------|
G|--------------------------------------11----11-9-11-9--------|
D|------------------------------------------------------11-----|
A|-------------------------------------------------------------|
E|-------------------------------------------------------------|


El anterior es el ínter lude o intermedio o solo como quieran
llamarle hasta por teléfono si quieren…como sea lo que quería
decir es que este ínter lude es alternativo , es decir, su servidor
 lo hizo de improviso y como me agrado así lo deje…si quieren
háganlo es bueno en verdad de lo contrario lo interpretare en otra
 ocasión como es la  canción de bon jovi…pero también recuerden que
 ponerle originalidad a las canciones hace que te intereses mas en
como tu tocas y no en como quieras tocar como otro…bueno sigue:


PRECORO 1

CORO1

CORO2

      E        B       A
Como yo, como yo, nadie te ha amado         x2




INTRO

En este intro le van dando un toque como sea de su preferencia:
en disminución o dos vueltas y terminar en E o como quieran…


 canciones…hay que sentirlas sino no son entendibles…
Duda, sugerencia o lo que sea de cualquier tema o de este tema
 háganmelo saber por favor y ya no me pongan mala reputación
ya que había dejado otra canción que a mi parecer y no por que
 yo la toque, esta bien solo háganle como dije….graxias

Un saludo a aquellos que saben de quien se trata

Koppe: es de sabios comprenderlo,
y es de comprendidos saberlo…xao
Envía el tono de "Como yo nadie te ha amado" a tu celular/móvil
Este fichero es trabajo propio de su transcriptor y representa su interpretación personal de la canción. El material contenido en esta página es
para exclusivo uso privado, por lo que se prohibe su reproducción o retransmisión, así como su uso para fines comerciales.
© LaCuerda.net · Aviso Legal · Privacidad