Tablatura para Guitarra de Bon Jovi: Como yo nadie te ha amado
Conexión · Inscripción
Letras y Acordes
Pantalla Completa
Imprimir
Versión Texto
Añadir Favorito
Otras Versiones

Mostrar Diagramas
Desfile Automático
Manipular Acordes
Formato del Texto

Bon Jovi
Como yo nadie te ha amado(TAB)
calidad:
bjov0014
AUTOR: jon bon jovi
ALBUM: desconocido
Enviado por Carlos
9s7= slide del 9 al 7 osea deslizas
12b13=haces un bending del 12 medio tono si fuera 13 en vez de 14 seria un tono completo y asi sucesivamente
Intro
  E      B/D#   Bm/D     A      Am        E              B
|-------------|--------7------|------------------------|-------------------|
|-9--9-9-7----|-7--7-9---5----|-4s5-5------------------|-------------------|
|-------------|---------------|-------5-5-4--4s6-4-----|----------4-6s8----|
|-------------|----------7----|-6s7-7-7-7-2--------4s6p|=4------4----------|
|-7----7-6----|-5-------------|------------------------|----4s6------------|
|-------------|---------------|------------------------|-------------------|

Verso I
  E      B     Bm  A     Am  E     B
|------------|---------|---------|--------------------------------|
|-4s5--------|---------|---------|--------------------------------|
|------------|---------|---------|---------4-6s=8-----------------|
|------------|---------|---------|-------4------------------------|
|------------|---------|---------|---4s6--------------------------|
|------------|---------|---------|--------------------------------|

                                    |--------------------------------|
                             |-------------12b13==(12)-(12)---|
                                    |--------------------------------|
                                    |--------------------------------|Guitarra II
                                    |--------------------------------|
                             |--------------------------------|

  E                B/D#   Bm/D                A
|-----------------------|-------------------7---------------------|
|---9---------9--9-7----|-7----------7--7-9---5-------------------|
|-----------------------|-----------------------------------------|
|-----------------------|-----------------------------------------|
|------------------6----|-5---------------------------------------|
|-----------------------|-----------------------------------------|

|-----------------------|---14pb15r(14)---------12-14-------------|
|-(12)r(12)-(12)--------|-----------------------------12h14-(14)--|
|-----------------------|-----------------------------------------| Guitarra II
|-----------------------|-----------------------------------------|
|-----------------------|-----------------------------------------|
|-----------------------|-----------------------------------------|

Am                E              B7sus4         B7
|-----------------------------|------------------------------|
|---5-----5-------------------|------------------------------|
|------------5-5----4s6p4-----|------------------------------|
|----------------4--------4s6p|-4--(4)---------2-2-2---------|
|-----------------------------|--------2-2-2s4-------2s4-2---|
|-----------------------------|----------------------------3-|

Verso II
  E      B/D#   Bm/D       A      Am        E
|-------------|----------7------|-----------------------|
|-9--9-9-7----|-7--7-7-9---5----|-^5--------------------|
|-------------|-----------------|-^5--5--4--4s6p4-------|
|-------------|-----------------|-^7--------------4s6s==|
|-7------6----|-5---------------|--------7--------------|
|-------------|-----------------|-----------------------|
                                        ~             ~
|------------------------------|------------|-------------|
|------------------------------|------------|-------------|
|------------------------------|----9--8----|-7-7s9--6----|
|-4--(4)-x-x-----2-2-2---------|------------|-------------|
|------------2s4-------2s4-2---|----7--6----|-5-5s7--4----|
|----------------------------3-|-0----------|-------------|
  Am    E             B7sus4          B7
|-------------------|---------------------------------------||
|-------------------|---------------------------------------||
|-5--9--4--13-13-13-|-13s11--(11)-x-x------9-9-9------------||
|-------------------|----------------------9-9-----11-11\---||
|-3--7--2--11-11-11-|-11s=9---(9)-x-x-9s11------------------||
|-------------------|---------------------------------------||

Precoro
  A             C#m
|--------9------------9-----|
|-----10---10-------9---9---|
|---9---------9---9-------9-|
|---------------------------|
|-0-------------------------|
|---------------9-----------|
  B                                              A             C#m
|----------------------------------------------|--------9------------9-------|
|----------------------------------------------|-----10---10-------9---9-----|
|-11----------11----------11----------11-------|---9---------9---9-------x-x-|
|-13-11-13-11-13-11-13-11-13-11-13-11-13-11--9-|-----------------------------|
|----------------------------------------------|-0---------------------------|
|----------------------------------------------|---------------9-------------|
  B7sus4                    B7
|--------------------------------------------------||
|-----12-------10---9-----7---5-----4---2-----0----||
|--------------------------------------------------||
|-/13----13s11----9---9s7---6---6s4---2---2s1------||
|--------------------------------------------------||
|--------------------------------------------------||

Coro
Chorus
  E     B               C#m   A               E     B
|----0----------------|----0----------------|----0--------------|
|----0----------------|----0----------------|----0--------------|
|---------------------|---------------------|-------4--(4)-x-x--|
|-------4-x-x-----4-6-|-------2-x-x-----2---|-------4--(4)-x-x--|
|-------2-x-x-4s6-----|-4-----0-x-x-2s4-----|-------2--(2)-x-x--|
|-0-------------------|-------------------3-|-0-----------------|
  A7
|--------------------------------------------------|
|-----14-------12----10------8---7-----5---3-----2-|
|--------------------------------------------------|
|-/14----14s12----11----11s9---7---7s5---4---4s2---|
|--------------------------------------------------|
|--------------------------------------------------|
Solo
  D            A
               ~
|-----------------------------|
|-10--10----------------------|
|-10--10-9-7-5-9--(9)-----7---|
|-------------------------7---|
|---------------------9-9---9-|
|-----------------------------|
  Bm                            G                 D                      A
                                          ~        ~~
|-----------------------------------------------|---------10----12-12-12-10-12-(12)-10-13--|
|-------------------------------------------10--|-10--/12----12----------------------------|
|-7-----7-------7-9b10r(9)-9b10r(9)-7-9---------|------------------------------------------|
|-9-7---9-7---9-------------------------7h9-----|------------------------------------------|
|-----9-----9-----------------------------------|------------------------------------------|
|-----------------------------------------------|------------------------------------------|
  G
                           ~~
|-12b13====(12)r==(12)p10--------10-------10-------10-------10----------|
|-------------------------12-----12-10----12-10----12-10----12-10-------|
|--------------------------------------11-------11-------11-------11----|
|-----------------------------------------------------------------------|
|-----------------------------------------------------------------------|
|-----------------------------------------------------------------------|
Salida
    E       B      Bm/D     A        Am         E
|---------------|----------7------|----------------------|
|--9---9-9-4----|-7--7-7h9---5----|-5-5------------------|
|---------------|-----------------|-5-5-5-5-4--4s6-4-----|
|--9-----9-7----|-7----------7----|-7-7-7-7-6--------4s6-|
|----7-7--------|-----------------|-------7-7------------|
|---------------|-----------------|----------------------|
  B                     E      B/D#   Bm/D       A
|--------------------||-------------|----------7------|
|--------------------||-9--9-9-7----|-7--7-7h9---5----|
|----------4-6s8-----||-------------|-----------------|
|-4------4-----------||--------7----|------------7----|
|----4s6-------------||-7-----------|-5---------------|
|--------------------||-------------|-----------------|
  Am      E              B
|----------------------|-------------------|
|-5-5------------------|-------------------|
|-----5-5-4--4s6-4-----|----------4-6s8----|
|-7----------------4s6p|=4------4----------|
|----------------------|----4s6------------|
|----------------------|-------------------|


Letras
Intro x 1
(tocas el verso I)
Yo no vi las flores marchitar,
ni ese frio en tus ojos al mirar,
no,no vi la realidad
me ibas a dejar.

Dicen que la vida baby no es como la ves,
para aprender hay que caer,
para ganar hay que perder,
lo di todo por ti.

(tocas el pre-coro)
Llore y llore y jure que no iba a perderte,
trate y trate de negar este amor tantas veces, baby

(tocas el coro)
Si mis lagrimas fueron en vano,
si al final yo te ame demasiado,
como yo, como yo nadie te ha amado.

(tocas el Verso II)
Cada hora, una eternidad,
cada amanecer, un comenzar;
ilusiones nada mas,
que facil fue sonar.

Tantas noches de intimidad
parecian no acabar;
nos dejamos desafiar
y hoy nada es igual.
(tocas el pre coro)
Se que en verdad el amor al final siempre duele,
no lo pude salvar y hoy voy a pagarlo con creces, baby
(tocas el coro)
Si mis lagrimas fueron en vano,
si al final yo te ame demasiado,
como yo, como yo nadie te ha amado.
(tocas el solo)
(tocas el coro)
Esta vez la pasion ha ganado
y por eso sigo esperando,
como yo, como yo nadie te ha amado.

Llore y llore y jure que no iba a perderte,
trate y trate de negar este amor tantas veces, baby

Si mis lagrimas fueron en vano,
si al final yo te ame demasiado,
como yo, como yo nadie te ha amado.

Esta vez la pasion ha ganado
y por eso sigo esperando,
como yo, como yo nadie te ha amado.
(tocas la salida)
Como yo, como yo nadie te ha amado... [x2]


Cualquier cancion de un compsitor en ingles diganme nomas y la paso
Envía el tono de "Como yo nadie te ha amado" a tu celular/móvil
Este fichero es trabajo propio de su transcriptor y representa su interpretación personal de la canción. El material contenido en esta página es
para exclusivo uso privado, por lo que se prohibe su reproducción o retransmisión, así como su uso para fines comerciales.
© LaCuerda.net · Aviso Legal · Privacidad