Tablatura para Guitarra de Boikot: Bajo el suelo
Conexión · Inscripción
Letras y Acordes
Pantalla Completa
Imprimir
Versión Texto
Añadir Favorito
Otras Versiones

Mostrar Diagramas
Desfile Automático
Manipular Acordes
Formato del Texto


Boikot
Bajo el suelo(TAB)
calidad:
boik0372
AUTOR: Boikot  corregir
ALBUM: Tus problemas crecen (2004)
Enviado por Perro
intro 1ra guitarra

~ = pequño vibrato con dedo izquierdo

E||--10----10----9----------|-------------------------|--12----9----|
B||-------------------12----|--10----9----10----12----|-------------|
G||-------------------------|-------------------------|-------------|
D||-------------------------|-------------------------|-------------|
A||-------------------------|-------------------------|-------------|
E||-------------------------|-------------------------|-------------|


--9----9----------9----|--10----9----|--------------10----9----|-------|
------------12---------|-------------|--12----10---------------|-------|
-----------------------|-------------|-------------------------|-------|
-----------------------|-------------|-------------------------|-------|
-----------------------|-------------|-------------------------|-------|
-----------------------|-------------|-------------------------|-------|


--10----10----9----------|-------------------------|-------9----9-------
-------------------12----|--10----9----10----12----|--9--------------12-
-------------------------|-------------------------|--------------------
-------------------------|-------------------------|--------------------
-------------------------|-------------------------|--------------------
-------------------------|-------------------------|--------------------


--9----10----9~---||
------------------||
------------------||
------------------||
------------------||
------------------||




intro 2da guitarra( en palm mute o apañao)
E||-----------------|-----------------|-----------------|-------|-------|
B||-----------------|-----------------|-----------------|-------|-------|
G||-----------------|-----------------|-----------------|-------|-------|
D||--7----7----7----|--9----9----9----|--6----6----6----|--7----|-------|
A||--5----5----5----|--7----7----7----|--4----4----4----|--5----|-------|
E||-----------------|-----------------|-----------------|-------|-------|
verso 1

  Me he levantado    por la mañana,    de todos modos  hoy no tengo nada
-----------------|-----------------|-----------------|-----------------|
-----------------|-----------------|-----------------|-----------------|
-----------------|-----------------|-----------------|-----------------|
--7----7----7----|--9----9----9----|--7----7----7----|--9----9----9----|
--5----5----5----|--7----7----7----|--5----5----5----|--7----7----7----|
-----------------|-----------------|-----------------|-----------------|

               No tengo miedo        de abr ir ventanas, ni de portazos ni
--------|-------|-------|-----------------|-----------------|-------------
--------|-------|-------|-----------------|-----------------|-------------
--------|-------|-------|-----------------|-----------------|-------------
--6S----|-------|-------|--7----7----7----|--9----9----9----|--6----6----6
--4S----|-------|-------|--5----5----5----|--7----7----7----|--4----4----4
--------|-------|-------|-----------------|-----------------|-------------


 de las patadas
-------||-----------------------|-------------||
-------||-----------------------|-------------||
-------||*--7----7----7----6----|--6----6----*||  /
--7----||*--5----5----5----4----|--4----4----*|| <------- X 2
--5----||-----------------------|-------------||
-------||-----------------------|-------------||


Coro

    Y volvere a    ver el cielo  tu estaras   10 metros bajo el suelo
E||-----------------|-----------------|-----------------|-------||
B||-----------------|-----------------|-----------------|-------||
G||-----------------|-----------------|-----------------|-------||
D||--7----7----7----|--9----9----9----|--6----6----6----|--7----||
A||--5----5----5----|--7----7----7----|--4----4----4----|--5----||
E||-----------------|-----------------|-----------------|-------||


   Y tocare      de nuevo el viento y  tu estaras 10 m bajo el suelo
E||-----------------|-----------------|-----------------|-------||
B||-----------------|-----------------|-----------------|-------||
G||-----------------|-----------------|-----------------|-------||
D||--7----7----7----|--9----9----9----|--6----6----6----|--7----||
A||--5----5----5----|--7----7----7----|--4----4----4----|--5----||
E||-----------------|-----------------|-----------------|-------||


el 2 verso es = al primero tbn el outro se toka asi
cualker duda mandame un un mail o agreguegame al
msn ;) x.el.perro.x@gmail.com
Este fichero es trabajo propio de su transcriptor y representa su interpretación personal de la canción. El material contenido en esta página es
para exclusivo uso privado, por lo que se prohibe su reproducción o retransmisión, así como su uso para fines comerciales.

© LaCuerda.net · Aviso Legal · Privacidad