Tablatura para Guitarra de Bersuit Vergarabat: Mi caramelo
Conexión · Inscripción
Letras y Acordes
Pantalla Completa
Imprimir
Versión Texto
Añadir Favorito
Otras Versiones

Mostrar Diagramas
Desfile Automático
Manipular Acordes
Formato del Texto


Bersuit Vergarabat
Mi caramelo(TAB)
calidad:
bers0171
AUTOR: Cordera
ALBUM: De la Cabeza Con Bersuit Vergarabat
Enviado por gabriel
      INTRO      

      1-0--------------------------------0---I
      2----3--1--0--3-----3-2-----2-1------1-I   REPITE 3 VECES
      3-----------------0-------0-----0------I
      4--------------------------------------I
      5-3--2--0-----2-2-----1-1-----0--------I
      6----------3---------------------------I

      FINAL INTRO
      1----3----3-----3----3----3------3-----+
      2--1---1-----1-----0---0-----0---------+
      3--------------------------------------+
      
 Que linda que estás,         sos un caramelo
      1----------------------------------------------+
      2-----------------0--------0-------0-------0---+        ( A )
      3---------------0---0----0---0---0---0---0---0-+
      4---------------------3--------2-------1-------+
      5----------------------------------------------+
      6-------------3--------------------------------+
      
      te veo en el recreo         y    me vuelvo loco,
      1----------------------------------2-----3-----3----+
      2----0-----0-----2-----2-----1-----1-----1-----1----+   ( B ) 
      3----0-----0-----2-----2-----2-----2--2--2--2--2--2-+
      4----2--2--2--2--2--2--2--2--2--2-------------------+
      5----------------0-----0-----0----------------------+
      6----0-----0----------------------------------------+
( A )
todas las cosas que me gustan, tienen tu cara
( B ) ( A )
y espero los asaltos, así juego a la botellita con vos, mi bomboncito. Que excitante que estás, tendrías que saberlo 1-----------------------------------------+ 2---0-----0------1---3----5-----5--4----4-+ ( C ) 3------0-----0----0---0-----0--------0----+ 4-----------------------------------------+ 5----------------0---2-2--3----3---3---3--+ 6---3-----3-------------------------------+ esa cola es la manzana mas buscada, 1---------------------------------+ 2--3----3--2----2--1----3----3----+ ( D ) 3----0-------0-------0----0-----0-+ 4---------------------------------+ 5--2---2---1---1---0--------------+ 6---------------------------------+
( A )
y esos senos el alimento de mi creación,
( B ) ( A )
quisiera arrancarte un día y morirme en un telo con vos... o quizás en un auto.
( C )
Han pasado cinco años, asumiste las cosas
( D )
hace tiempo que estoy buscando mi verdadero yo,
( A )
hay una especie de simbiosis, lo dijo mi psicóloga
( B ) ( A )
haría bien a la terapia alejarme un tiempo... unos setenta años. Como estás querida tengo esposa e hijos de ves en cuando hablo con ella y hasta hago el amor, no es que quiera molestarte, pero me es imprescindible sentarme en un café, y soñar un poco... y tal vez amarnos. Y ha pasado mi hora, quién robo mis años, cambio a toda esta familia por un segundo con vos, si te veo ahora, aunque termine en un hospicio, INTRO tomo una botella...y juego a la botellita con vos. ESPERO QUE LES SIRVA Y AGUANTEN LOS PELÓ !!!!!! (PELLE 5TO 5TA TM)
Este fichero es trabajo propio de su transcriptor y representa su interpretación personal de la canción. El material contenido en esta página es
para exclusivo uso privado, por lo que se prohibe su reproducción o retransmisión, así como su uso para fines comerciales.

© LaCuerda.net · Aviso Legal · Privacidad