Letra y Acordes de Bersuit Vergarabat: Mi caramelo
Conexión · Inscripción
Letras y Acordes
Pantalla Completa
Imprimir
Versión Texto
Añadir Favorito
Otras Versiones

Mostrar Diagramas
Desfile Automático
Manipular Acordes
Formato del Texto


Bersuit Vergarabat
Mi caramelo
calidad:
bers0178
AUTOR: Cordera
ALBUM: De la Cabeza Con Bersuit Vergarabat
Enviado por denis
ACORDES:> G G5 G6 G7 Em A7 Am D C Cm7


INTRODUCCIÓN

e|-0---------------|-------------0---|-0---------------|-------------3---|>
B|---3-1-0-3-----3-|-2---2---1-------|---3-1-0-3-----3-|-2-----2-1-----1-|>
G|*------------0---|---0---0---0---0*|-------------0---|-----0-----0-----|>
D|*----------0-----|-1--------------*|-----------0-----|-1-1-------------|>
A|-3-2-0---2-------|---------0-------|-3-2-0---2-------|---------0-------|>
E|-------3---------|-----------------|-------3---------|-----------------|>
   1 + 2 + 3 + 4 +   1 + 2 + 3 + 4 +   1 + 2 + 3 + 4 +   1 + 2 + 3 + 4 +


e|-3---3---3---3---|-2---------------||
B|---1---1-------1-|-----1-----------||
G|-----------2-----|---2-------------||
D|---------0-------|-0---------------||
A|(0)--------------|-----------------||
E|-----------------|-----------------||
   1 + 2 + 3 + 4 +   1 + 2 + 3 + 4 +




G G5 G6 G7 Que linda que estás, sos un caramelo
Em A7 Am D Te veo en el recreo y me vuelvo loco,
G G5 C Cm7 Todas las cosas que me gustan, tienen tu cara
Em A7 Am D G G5 G6 G7 Y espero los asaltos, así juego a la botellita con vos,
G Em Mi bomboncito.
G G5 G6 G7 Que excitante que estás, tendrías que saberlo
Em A7 Am D Esa cola es la manzana más buscada,
G G5 C Cm7 Y esos senos el alimento de mi creación,
Em A7 Am D G G5 G6 G7 Quisiera arrancarte un día y morirme en un telo con vos...
G Em O quizás en un auto.
G C Cm7 Han pasado cinco años, asumiste las cosas
Em A7 Am D Hace tiempo que estoy buscando mi verdadero yo,
G C Cm7 Hay una especie de simbiosis, lo dijo mi psicóloga
Em A7 Am D G G5 G6 G7 Haría bien a la terapia uoooo alejarme un tiempo...
G Em Unos setenta años.
G G5 G6 G7 Como estás querida tengo esposa e hijos
Em A7 Am D De ves en cuando hablo con ella y hasta hago el amor,
G G5 C Cm7 No es que quiera molestarte, pero me es imprescindible
Em A7 Am D G G5 G6 G7 Sentarme en un café, y soñar un poco...
G Em y tal vez amarnos.
G C Cm7 Y ha pasado mi hora, quién robo mis años,
Em A7 Am D Cambio a toda esta familia por un segundo con vos,
G C Cm7 Si te veo ahora, aunque termine en un hospicio,
Em A7 Am D G G5 G6 G7 Tomo una botella...y juego a la botellita con vos.
E A D G B E G 3 2 0 0 0 3 G5 3 2 3 0 0 0 G6 3 2 2 0 0 0 G7 3 2 1 0 0 0 (arreglo de G7) Em 0 2 2 0 0 0 A7 0 0 2 0 2 0 Am 0 0 3 3 2 0 D 0 0 0 2 3 2 C 0 3 2 0 1 0 Cm7 3 3 5 5 4 3 (3 seguilla)
Este fichero es trabajo propio de su transcriptor y representa su interpretación personal de la canción. El material contenido en esta página es
para exclusivo uso privado, por lo que se prohibe su reproducción o retransmisión, así como su uso para fines comerciales.
© LaCuerda.net · Aviso Legal · Privacidad