Tablatura para Guitarra de Bersuit Vergarabat: Me Voy
Conexión · Inscripción
Letras y Acordes
Pantalla Completa
Imprimir
Versión Texto
Añadir Favorito
Otras Versiones

Mostrar Diagramas
Desfile Automático
Manipular Acordes
Formato del Texto


Bersuit Vergarabat
Me Voy(TAB)
calidad:
bers1472
AUTOR: Bersuit
ALBUM: El Baile Interior (2014)
Enviado por Nahuel, basado en vato
Intro:

       RE   LA              SIm    FA# SOL         RE      LA
    e/------------------------------------------------------------------------/
    a/--------------------------------------------------------------2/4---4-0-/
    d/------------------------------------------------------------------2-----/
    g/-------7--------------7-------------------7-------2-------2-------------/
    b/-5/7--------8-7-5-5/7-----------7-5-7---7-----------2-5-2---------------/
    e/--------7-5-------------7-7-7-5-------5---------------------------------/

RE                             LA
Medianoche en esta isla tan desierta
       SIm                     FA#
Solo nieve y fantasmas en la tierra
       SOL                 RE
Voy buscando una bajada urgente
       LA
Que conduzca hacia vos


RE                             LA
No hay un puente a la vista que me lleve
       SIm                     FA#
Nuevamente al continente que contiene
       SOL          RE
Me marea esta calesita inquieta
     LA
Como un reloj  SIbm


    SIm                SIbm
Y si el pacto adelanta mi partida hoy
      LA              SOL#
Y el viaje agiganta mi salida
   SOL                 LA
Cargare una mochila inmensa
  LA#                   LA
Ocultando mi sueño y mi amor

RE
ME VOY
          LA                SIm
APROVECHEMOS QUE MAÑANA ME VOY
       FA#                   SOL
Y DISFRUTEMOS ESTA NOCHE DE AMOR
             RE                  LA
NO HAGAMOS PLANES QUE MAÑANA NO ESTOY

RE
ME VOY
          LA                SIm
APROVECHEMOS QUE MAÑANA ME VOY
       FA#                   SOL
Y DISFRUTEMOS ESTA NOCHE DE AMOR
             RE                  LA
NO HAGAMOS PLANES QUE MAÑANA NO ESTOY

RE                         LA
Ya devuelta en la ruta rutinaria
     SIm                    FA#
Se repiten los esquemas las plegarias
   SOL               RE
Imagino un periplo intenso
        LA
Para el día de hoy

RE                           LA
Si amanece en mi calle con oscuro
        SIm                      FA#
Y me enciendo con las luces del futuro
      SOL                   RE
Es posible que me oriente ahora
                LA
Y me quiera un poco más

     SIm                SIbm
Se que hay alguien que me ama y que me espera
      LA              SOL#
A pesar de la agonía dominguera
   SOL                 LA
No hay razones para dejar todo
  LA#                   LA
Mi etéreo se hace canción

RE
ME VOY
          LA                SIm
APROVECHEMOS QUE MAÑANA ME VOY
       FA#                   SOL
Y DISFRUTEMOS ESTA NOCHE DE AMOR
             RE                  LA
NO HAGAMOS PLANES QUE MAÑANA NO ESTOY

RE
ME VOY
          LA                SIm
APROVECHEMOS QUE MAÑANA ME VOY
       FA#                   SOL
Y DISFRUTEMOS ESTA NOCHE DE AMOR
             RE                  LA
NO HAGAMOS PLANES QUE MAÑANA NO ESTOY

ME VOY
solo: (ACOMPANIAMIENTO IGUAL QUE ESTRIBILLO)
    e/------------------------------------------------
    a/------------------------------------------------
    d/------------------------------------------------
    g/----------------------------------------------7-
    b/-10----------------------10-7-7-7-7----7-5-7-7--
    e/---10-12-14-12-10-9-10-9----7-7-7-7-7/5-----5---


    e/----------------------------------------------/
    a/----------------------------------------------/
    d/----------------------------------------------/
    g/-4----------------2-4-------------------------/
    b/--3-5---------5-3----2-4----------10----------/
    e/-----3-3-3-3/2----------2-5-5/10-9------------/





RE
ME VOY
          LA                SIm
APROVECHEMOS QUE MAÑANA ME VOY
       FA#                   SOL
Y DISFRUTEMOS ESTA NOCHE DE AMOR
             RE                  LA
NO HAGAMOS PLANES QUE MAÑANA NO ESTOY


RE-LA-SIm-FA#-SOL-RE-LA-RE-LA-RE
Este fichero es trabajo propio de su transcriptor y representa su interpretación personal de la canción. El material contenido en esta página es
para exclusivo uso privado, por lo que se prohibe su reproducción o retransmisión, así como su uso para fines comerciales.

© LaCuerda.net · Aviso Legal · Privacidad