Letra y Acordes de Bersuit Vergarabat: Esperando el impacto
Conexión · Inscripción
Letras y Acordes
Pantalla Completa
Imprimir
Versión Texto
Añadir Favorito
Otras Versiones

Mostrar Diagramas
Desfile Automático
Manipular Acordes
Formato del Texto


Bersuit Vergarabat
Esperando el impacto
calidad:
bers0871
AUTOR: Righi
ALBUM: Testosterona (2005)
Enviado por Leonardo
1---------------------3-2---------------------
2----0-3-4---0--4--5-----13*--1-1--0-0---------
3--6-----------------------------------2------
4-----------------------------------------2-25*
5---------------------------------------------
6---------------------------------------------
  (* arrastrar el dedo desde la primer nota a la segunda)

¿A dónde iré?
Como un fusil cargado
Tirando a cualquier lado
Es resignación
O es la lucidez
Antes del final
Suelo bucear
En un mar hirviendo
De cara a la libertad
Hoy viajo solo y sin volver
Será que el resto es languidecer
Me gusta estar cayendo
Voy esperando el impacto

1---3-2-0-2-----2-0-0--------------------------
2-0------------3---3-----0--0-3-1-0---0--------
3------------------------------------2-2-0-----
4------------------------------------------2-25*
5----------------------------------------------
6----------------------------------------------


4-----22-22------------------------------------
(estos cuatro mi se tocan, como una armonía)


Dejare mis sueños vencidos
para otra ocasión
Como un Big Bang
Quiero estrellarme
Cerca de la eternidad
Y hoy viajo solo y sin volver
Será que el resto es languidecer
Me gusta estar cayendo
Voy esperando el impacto
Y en el abismo me encontraré
y en la caída te nombrare
Me gusta estar cayendo
Voy esperando el impacto
Algo falló
Todo sigue estando
Algo cambió
Todo sigue igual que ayer
Sigo esperando el impacto
Sigo esperando el impacto
Voy esperando el impacto
Este fichero es trabajo propio de su transcriptor y representa su interpretación personal de la canción. El material contenido en esta página es
para exclusivo uso privado, por lo que se prohibe su reproducción o retransmisión, así como su uso para fines comerciales.

© LaCuerda.net · Aviso Legal · Privacidad