Tablatura para Bajo de Bersuit Vergarabat: El viejo de Arriba
Conexión · Inscripción
Letras y Acordes
Pantalla Completa
Imprimir
Versión Texto
Añadir Favorito
Otras Versiones

Mostrar Diagramas
Desfile Automático
Formato del Texto


Bersuit Vergarabat
El viejo de Arriba(BAJ)
calidad:
bers0045
AUTOR: Subira
ALBUM: De la Cabeza Con Bersuit Vergarabat
Enviado por Facundo
este tab lo saque de la versión de "encuentro en el estudio"

Intro 0:44 1:04 :

E|---------2-------------2------------2----------------------|
A|-------4----0-4-2--5-4----0-4-2--5-4---0-4-5-5---5-4------4|
D|-4-2-0-----------------------------------------4------3-6--|
G|-----------------------------------------------------------|

E|-2-------------2------------------------2------------|
A|----0-4-2--5-4----0-4-2-5-4-------4--0----4-4-2-0-4-4|
D|----------------------------4--2---------------------|
G|-----------------------------------------------------|

el viejo de arriba..

E|-2-------------2-----------------------------------|
A|----0-4-2--5-4----0-4-2--5-4-7------7--------------|
D|--------------------------------6-9---6-4-7-----7-6|
G|--------------------------------------------6-6----|

no es una herida ...

E|-2-------------2-------------------------------------|
A|----0-4-2--5-4----0-4-2--5-4-7-----7---5------5-4-2-0|
D|-------------------------------6-9---6----4-7--------|
G|-----------------------------------------------------|

nadie lo podra impedir ...

E|-3------3------3-3-----3----------------------------|
A|----2-5----2-5-----5-2---2-(7)---------7------------|
D|-------------------------------6-9-7-6---4-7-----7-6|
G|---------------------------------------------6-4----|

el viejo de arriba ...

E|-2-------------2-----------------------------------|
A|----0-4-2--5-4----0-4-2--5-4-7------7--------------|
D|--------------------------------6-9---6-4-7-----7-6|
G|--------------------------------------------6-6----|

camino perdido ...

E|-2-------------2--------------------------------------|
A|----0-4-2--5-4----0-4-2--5-4------------5------5-4-2-0|
D|-----------------------------2------2------4-7--------|
G|--------------------------------1-4---1---------------|

nadie lo podra impedir ...

E|-3------3------3-3-----3----------------------------|
A|----2-5----2-5-----5-2---2-(7)---------7------------|
D|-------------------------------6-9-7-6---4-7-----7-6|
G|---------------------------------------------6-4----|

a zaguán..

E|-2-------------2------2-5-----------------------5------5-5-4|
A|----0-4-2--5-4----0-4-----4-5-5---5-5-(7)-7---7----4-7------|
D|--------------------------------4-----------6---------------|
G|------------------------------------------------------------|

al rincon ...

E|-2-------------2-----------------------------5------5-5-------------4|
A|----0-4-2--5-4---0-4-5-4-2-0-5-5---5-7-7---7----4-7-----4-2-4-4-2-0--|
D|---------------------------------4-------6---------------------------|
G|---------------------------------------------------------------------|

repite la intro y


nadie lo podra impedir ...

E|-3------3------3-3-----3----------------------------|
A|----2-5----2-5-----5-2---2-(7)---------7------------|
D|-------------------------------6-9-7-6---4-7-----7-6|
G|---------------------------------------------6-4----|

a zaguán..

E|-2-------------2------2-5-----------------------5------5-5-4|
A|----0-4-2--5-4----0-4-----4-5-5---5-5-(7)-7---7----4-7------|
D|--------------------------------4-----------6---------------|
G|------------------------------------------------------------|

al rincon ...

E|-2-------------2-----------------------------5------5-5-------------4|
A|----0-4-2--5-4---0-4-5-4-2-0-5-5---5-7-7---7----4-7-----4-2-4-4-2-0--|
D|---------------------------------4-------6---------------------------|
G|---------------------------------------------------------------------|
Este fichero es trabajo propio de su transcriptor y representa su interpretación personal de la canción. El material contenido en esta página es
para exclusivo uso privado, por lo que se prohibe su reproducción o retransmisión, así como su uso para fines comerciales.
© LaCuerda.net · Aviso Legal · Privacidad