Tablatura para Guitarra de Bersuit Vergarabat: El viejo de Arriba
Conexión · Inscripción
Letras y Acordes
Pantalla Completa
Imprimir
Versión Texto
Añadir Favorito
Otras Versiones

Mostrar Diagramas
Desfile Automático
Manipular Acordes
Formato del Texto


Bersuit Vergarabat
El viejo de Arriba(TAB)
calidad:
bers0043
AUTOR: Subira
ALBUM: De la Cabeza Con Bersuit Vergarabat
Enviado por Mauro
Es mi primera transcripcion... asi que ahi va

E||----------------------------|-----------------------------|
B||----------------------------|-----------------------------|
G||----------------------------|--------6-6---------7-7------|
D||-----------7---------9-9----|----7-9------9-7-7-----------|
A||----8-9-11----9-9-----------|--9--------------------------|
E||----------------------------|-----------------------------|



-----------------------------|---------------------|
-----------------------------|---------------------|
--6-6-6----------------------|-------6-------------|
--------9-7----7--9-7-6------|---------------------|
------------------------9--8-|---------------------|
-----------------------------|---------------------|



----------------------------|-----------------------------|
----------------------------|-----------------------------|
----------------------------|--------6-6---------7-7------|
-----------7---------9-9----|----7-9------9-7-7-----------|
----8-9-11----9-9-----------|--9--------------------------|
----------------------------|-----------------------------|


-----------------------------|---------------------------------|
-----------------------------|----10--10-10--10-10--9--9-9--7--|
--6-6-6----------------------|---------------------------------|
--------9-7----7--9-7-6------|---------------------------------|
------------------------9--8-|---------------------------------|
-----------------------------|---------------------------------|



------------------------|-------|-------||
--6--6h--7p--------6----|-------|-------||
------------------------|-------|-------||
------------------------|-------|-------||
------------------------|-------|-------||
------------------------|-------|-------||
Este fichero es trabajo propio de su transcriptor y representa su interpretación personal de la canción. El material contenido en esta página es
para exclusivo uso privado, por lo que se prohibe su reproducción o retransmisión, así como su uso para fines comerciales.
© LaCuerda.net · Aviso Legal · Privacidad