Tablatura para Guitarra de Bersuit Vergarabat: El viejo de Arriba
Conexión · Inscripción
Letras y Acordes
Pantalla Completa
Imprimir
Versión Texto
Añadir Favorito
Otras Versiones

Mostrar Diagramas
Desfile Automático
Manipular Acordes
Formato del Texto


Bersuit Vergarabat
El viejo de Arriba(TAB)
calidad:
bers0042
AUTOR: Subira
ALBUM: De la Cabeza Con Bersuit Vergarabat
Enviado por gonzalo

Intro:

e|------------------------------------------------------------------------------------|
b|------------------------------------------------------------------------------------|
g|------------------------------------------------------------------------------------|
d|------------------9-9----------9--11-11--9---------12-12-11-11--9---------- 9-------|
a|--9-9--11--12--9--------11-12----------------12-12----------------12----12------12--|
E|------------------------------------------------------------------------------------|

e|----------------|----------------------------------------------------|
b|----------------|----------------------------------------------------|
g|----------------|----------------------------------------------------|
d|-------------11-|-----------------9-9----------9--11-11--9-----------|
a|--11--9--8------|-9-9--11--12--9--------11-12----------------12------|
E|----------------|----------------------------------------------------|

e|--------------------------------------|
b|--14-14-14-14-14-12-10-12-10--9-10----|
g|--14-14-14-14-14-13-11-13-11-10-11----|
d|--------------------------------------|
a|--------------------------------------|
E|--------------------------------------|


El viejo de arriba me quiere limpiar
pero no creo que me pueda areglar
esta cabeza no quiere frena-a-ar, no está tranquila...

No es una herida es un hueco de amor
bala perdida en un trance de alcohol
bebido me rio sin buena razón, no cazo una...

Nadie lo podrá impedir, todo sea por sentir
machacando machacando se nos fue pudriendo el rancho...

El viejo de arriba no sabe vivir
no dejo que pinte mi cielo de gris
ni de ningún modo voy a permitir, que me entristezca...

Camino perdido no uso reloj
la rumba bardera ya toma color 
con los descarriados fue mi corazón, hasta la cima..   

Nadie lo podrá impedir, esta noche iré hasta el fín
con los locos, los borrachos con las putas y los guachos

al zaguán de un mundo liberado
RE MI LA
al placer de un mambo marginal al rincón de un juego desquiciado
RE MI LA
hasta tumbar en plenitud, hasta tumbar... *** Repite INTRO *** Cachaca que dure cachaca que dure cachaca en la maison de Joan...
FA#(es mayor) SIm MI LA
El viejo de arriba disparaba se creía Dios El viejo de arriba disparaba se creía Dios Cachaca, que dure, cachaca... Hecho por: Gonzalo Lucena Esto se lo dedico a todos mis amigos... (S.A..... D.R......R.R... ) =) Y para el polaco y bola 8 que les gusta este tema
Este fichero es trabajo propio de su transcriptor y representa su interpretación personal de la canción. El material contenido en esta página es
para exclusivo uso privado, por lo que se prohibe su reproducción o retransmisión, así como su uso para fines comerciales.

© LaCuerda.net · Aviso Legal · Privacidad