Tablatura para Guitarra de Banda R-15: Arreando la mula
Conexión · Inscripción
Letras y Acordes
Pantalla Completa
Imprimir
Versión Texto
Añadir Favorito
Otras Versiones

Mostrar Diagramas
Desfile Automático
Manipular Acordes
Formato del Texto

Banda R-15
Arreando la mula(TAB)
calidad:
br150021
AUTOR: Banda R-15  corregir
ALBUM: desconocido
Enviado por --°--_
Yepa-Yepa

Esta canción habia sido pedida en diversas ocasiones, pues bien...
aquí está ...

Arriba la Rondalla del St. y V13

Ahua!!! a mover los dedos...

e|----------------------------------------------------5-|
B|-------10-------------------------------------------7-|
G|--9/11----11-9----------7---------------------------7-|
D|---------------12---7/9---9-7----------7------------7-|
A|------------------------------10---7/9---9/7----------|
E|---------------------------------------------9-10-----|

|----------------------------------------------------5-|
|-------10-------------------------------------------7-|
|--9/11----11-9----------7---------------------------7-|
|---------------12---7/9---9-7----------7------------7-|
|------------------------------10---7/9---9/7----------|
|---------------------------------------------9-10-----|

|-----------------------------------------------------------------|
|-----------------------------------------------------------------|
|--9/11-11-11-7-7-7-----------------------------------------------|
|-------------------7-7-7-9p7-9--------------------------7-7------|
|-------------------------------9--7-7-9p7-9p7-------7/9-----9----|
|----------------------------------------------10-----------------|

|-------------------------------------------------------|
|-------------------------------------------------------|
|--11-11-11-9-7-7-7-------------------------------------|
|-------------------9-7-7-7--9-7-9----------------------|
|----------------------------------9--7--7-9-7-9p7------|
|--------------------------------------------------10---|

|-----------------------------------------------------------------|
|-----------------------------------------------------------------|
|--9/11-11-11-7-7-7-----------------------------------------------|
|-------------------7-7-7-9p7-9--------------------------7-7------|
|-------------------------------9--7-7-9p7-9p7-------7/9-----9----|
|----------------------------------------------10-----------------|

|-----------------------------------------------------------|
|-----------------------------------------------------------|
|9--/11-11-11-11-7-7-7-7------------------------------------|
|------------------------7-7-7-7-9p7-9----------------------|
|--------------------------------------9-7-7-7-9p7-9p7------|
|------------------------------------------------------10---|

|---------------------------------------------------------------------|
|------5-5-----5-5-----5-5-----5-5----------------------------5-5-----|
|--4/6-----4/6-----4/6-----4/6------3/4-4-4-6-4-6p4-------4/6-----6---|
|---------------------------------------------------7-----------------|
|---------------------------------------------------------------------|
|---------------------------------------------------------------------|

|------------------------5-5--------------------------------|
|------5-5---------5---------5------------------------------|
|--4/6-----6---4/6---4/6--------6--3/4-4-4-6-4-6-4h6p4------|
|-------------------------------------------------------7---|
|-----------------------------------------------------------|
|-----------------------------------------------------------|

|--------5----------------------------------------------------------------|
|--------5-7-7-5-------------------------------------------------5-5------|
|--4-4/6----------4/6-6-6--4/6-6-6--3/4-4-4-6-4-6-4h6p4------4/6-----6----|
|-------------------------------------------------------7-----------------|
|-------------------------------------------------------------------------|
|-------------------------------------------------------------------------|

|-----------------------5-5-------------------------------------------|
|------5-5---------5---------5--------------5-5-----------------------|
|--4/6-----6---4/6-6-4/6--------6---3/4-4------7-7-6-6-4-4------------|
|-----------------------------------------------------------7-7-5-5---|
|---------------------------------------------------------------------|
|---------------------------------------------------------------------|

|-----------------------------------------------------------------|
|-----------------------------------------------------------------|
|---/11-11-11-7-7-7-----------------------------------------------|
|-------------------7-7-7-9p7-9--------------------------7-7------|
|-------------------------------9--7-7-9p7-9p7-------7/9-----9----|
|----------------------------------------------10-----------------|

|------------------------------------------------------|
|------------------------------------------------------|
|--9/11-11-11-7-7-7------------------------------------|
|-------------------7-7-7-9p7-9------------------------|
|-------------------------------9--7-7-9p7-9p7---------|
|----------------------------------------------10------|

|-----------------------------------------------------------------------|
|-----------------------------------------------------------------------|
|9--/11-11-11-11-7-7-7-7------------------------------------------------|
|------------------------7-7-7-7-9p7-9-------------------------7-7------|
|--------------------------------------9-7-7-7-9p7-9p7-----7/9-----9----|
|------------------------------------------------------10---------------|

|-------------------------------------------------------|
|-------------------------------------------------------|
|--11-11-11-9-7-7-7-------------------------------------|
|-------------------9-7-7-7--9-7-9----------------------|
|----------------------------------9--7--7-9-7-9p7------|
|--------------------------------------------------10---|
se repite todo lo anterior varias veces y luego...

Final:
|-------------------------------------------------------------|
|-------------------------------------------------------------|
|---/11-11-11-7-7-7-------------------------------------------|
|-------------------7/9-7-7-7-----7-----------7------------7--|
|-----------------------------7/9---7-7--7/9-----7-7--7/9-----|
|-------------------------------------------------------------|

|---------------------------------------------------------------------|
|---------------------------------------------------------------------|
|---------------------------------------------------------------------|
|-7/9-7--7/9-7--9/10-9-7------9-7-------------------------------------|
|------------------------10-9-----10-9-7-5-7-9-10-9-7--7--------------|
|----------------------------------------------------10--10--5-7-9-10-|

|---------------------------------------------------|
|-------------------------------------------9/10----|
|--9/11-11-11-9-11/12-12-12-9-12/13-13-13-9------9--|
|---------------------------------------------------|
|---------------------------------------------------|
|---------------------------------------------------|

|--10-10-10-7h10p7-----------------------------------|
|-------------------10-10-10-7h10p7--7-7-------------|
|----------------------------------------9--6-6/7-7--|
|----------------------------------------------------|
|----------------------------------------------------|
|----------------------------------------------------|

|----------------------------------------------------|
|-------10-------------------------------------------|
|--9/11----11-9----------7---------------------------|
|---------------12---7/9---9-7----------7------------|
|------------------------------10---7/9---9/7--------|
|---------------------------------------------9-10---|

|----------------------------------------------------|
|-------10-------------------------------------------|
|--9/11----11-9----------7---------------------------|
|---------------12---7/9---9-7----------7------------|
|------------------------------10---7/9---9/7--------|
|---------------------------------------------9-10---|

|----------------------------------------------------5-5-|
|-------10-------------------------------------------7-7-|
|--9/11----11-9----------7---------------------------7-7-|
|---------------12---7/9---9-7----------7------------7-7-|
|------------------------------10---7/9---9/7------------|
|---------------------------------------------9-10-------|

Disfrútenla !!!!

*En algunas partes se escucha esto

|--4/5-5-5----|
|--4/5-5-5----|
|--5/6-6-6----| y se repite con el ritmo
|-------------|(cuando hace el cambio a "A")
|-------------|
|-------------|

Dudas o comentarios !!!!
Envía el tono de "Arreando la mula" a tu celular/móvil
Este fichero es trabajo propio de su transcriptor y representa su interpretación personal de la canción. El material contenido en esta página es
para exclusivo uso privado, por lo que se prohibe su reproducción o retransmisión, así como su uso para fines comerciales.
© LaCuerda.net · Aviso Legal · Privacidad