Tablatura para Guitarra de Aventura: Amor de madre
Conexión · Inscripción
Letras y Acordes
Pantalla Completa
Imprimir
Versión Texto
Añadir Favorito
Otras Versiones

Mostrar Diagramas
Desfile Automático
Manipular Acordes
Formato del Texto

Aventura
Amor de madre(TAB)
calidad:
aven0026
AUTOR: Aventura  corregir
ALBUM: Bachatamania (2002)
Enviado por Nicolás, basado en Miguel
Afinación Estándar:

* = Rasgueo arriba dedos

Intro:

  Am               Dm                           Am                  F
E|-0-|-10-10-10-12-12h13-10-|-10-10-10-10h13-10-12-8-|-8-8-8-8h12-8-10-8-|
B|-1-|----------------------|------------------------|-------------------|
G|-2-|----------------------|------------------------|-------------------|
D|-2-|----------------------|------------------------|-------------------|
A|-0-|----------------------|------------------------|-------------------|
E|-x-|----------------------|------------------------|-------------------|
   *

                G
E|-8-8-8-8h12-8-10-|--------------|
B|-----------------|-10-10-10-10--|
G|-----------------|--------------|
D|-----------------|--------------|
A|-----------------|--------------|
E|-----------------|--------------|


         Dm                           Am                  F
E|-10-12-12h13-10-|-10-10-10-10h13-10-12-8-|-8-8-8-8h12-8-10-8-|
B|----------------|------------------------|-------------------|
G|----------------|------------------------|-------------------|
D|----------------|------------------------|-------------------|
A|----------------|------------------------|-------------------|
E|----------------|------------------------|-------------------|

                 G
E|-8-8-8-10h12-8-10-|--------------------------------------------------|
B|------------------|-10-10-10-10--------------------------------------|
G|------------------|-------------10-10-10-10--10-9-10-9h12-10-9-10-9--|
D|------------------|--------------------------------------------------|
A|------------------|--------------------------------------------------|
E|------------------|--------------------------------------------------|


  Dm
E|-0-0---0---0---0-0-0---0---0---0-0-0---0---0---0-0-0---0----|
B|-1---------------1---------------1---------------1----------|
G|-2---2---2---2---2---2---2---2---2---2---2---2---2---2---2--|
D|-2---------------2---------------2---------------2----------|
A|-0---------------0---------------0---------------0----------|
E|------------------------------------------------------------|
   *               *               *               *
Envía el tono de "Amor de madre" a tu celular/móvil
Este fichero es trabajo propio de su transcriptor y representa su interpretación personal de la canción. El material contenido en esta página es
para exclusivo uso privado, por lo que se prohibe su reproducción o retransmisión, así como su uso para fines comerciales.
© LaCuerda.net · Aviso Legal · Privacidad