Tablatura para Guitarra de Aventura: Amor de madre
Conexión · Inscripción
Letras y Acordes
Pantalla Completa
Imprimir
Versión Texto
Añadir Favorito
Otras Versiones

Mostrar Diagramas
Desfile Automático
Manipular Acordes
Formato del Texto


Aventura
Amor de madre(TAB)
calidad:
aven0022
AUTOR: Aventura  corregir
ALBUM: Bachatamania (2002)
Enviado por Emanuel
  A ESTE TEMA LE AGREGUE LA INTRO
Y UNOS PARES DE ACORDES QUE LE FALTABAN.
Traten de hacer arpegios, ya que la en bachata se raguea poco
INTRO

e|-12-12-12-14-14/15-12--12-12-12-14/15-12-14-10----|
B|--------------------------------------------------|
G|--------------------------------------------------|
D|--------------------------------------------------|
A|--------------------------------------------------|
E|--------------------------------------------------|

e|-10-10-13/14-10-12-10--10-10-13/14-10-12----------|
B|----------------------------------------12--------|
G|--------------------------------------------------|
D|--------------------------------------------------|
A|--------------------------------------------------|
E|--------------------------------------------------|

e|-12-14-15-12--12-12-15-12-14-10-------------------|
B|--------------------------------------------------|
G|--------------------------------------------------|
D|--------------------------------------------------|
A|--------------------------------------------------|
E|--------------------------------------------------|

e|-10-10-14-10-12-10--10-10-14-10-12----------------|
B|-----------------------------------12-------------|
G|--------------------------------------------------|
D|--------------------------------------------------|
A|--------------------------------------------------|
E|--------------------------------------------------|



LAm FA SOL 13 de Diciembre del año 80 a las tres veinticuatro AM
LAm FA SOL nació un niño blanco con ojos azules cabello castaño
LAm FA SOL la madre con mucho orgullo después de tanto tiempo al fin sonríe de emoción
LAm FA SOL lloraba inquietamente la enfermera pregunta cuál es la razón.
REm LAm FA SOL Pues el padre con solo seis meses de aquel embarazo los abandonó
REm LAm FA SOL no dejo ni motivos ni huellas una mañanita se fue y no volvió
REm LAm FA SOL y la madre no olvida ese día que aquel hombre ingrato le falló.
LAm FA SOL El niño va pa ocho meses se parece a su padre y ya dice mamá
LAm FA SOL ya los conflictos comienzan, y el welfare no alcanza y nadie quiere ayudar
LAm FA SOL solo le importa entender, que su hijo necesita comer.
REm LAm FA SOL Y la renta le faltan dos meses la plata que entra no alcanza pa´ ná
REm LAm FA SOL decisiones tomó aquella madre la prostitución la llevo a progresar
REm LAm FA SOL y aquel niño nunca se dio cuenta lo que hacía su madre, por el nada mas.
LAm FA SOL Iban pasando los años y el niño lindo de mami vive con mujer
LAm FA SOL nada se le negó si en todo se consintió
LAm FA SOL creído y presumido el joven se ha vuelto y se cree el mejor.
LAm FA SOL Por el sudor de su madre tiene carro del año y viste de Armani nomás
LAm FA SOL solo un amigo de infancia y muchos enemigos por su personalidad.
REm LAm FA SOL Cuando llegues a grande yo quiero que seas abogado o un gran militar
REm LAm FA SOL no te olvides que no tienes padre y la novia que elijas te tiene que amar
REm LAm FA SOL soy tu madre, tu padre, tu amiga fueron las palabras de aquella mamá. Coro:
DO SOL FA SOL Esta es la historia de una madre insaciable que criando su hijo cometía un error
DO SOL FA SOL no oyó consejos siguió sus sentimientos y aunque vendió su cuerpo por su hijo luchó
DO SOL FA SOL Amor de madre es un amor infinito es el fruto en el vientre es un regalo de Dios
DO SOL FA SOL algunas veces cometemos errores y esa pobre mujer no tuvo otra opción. Diciembre 16 del año 2003, ya no es un niño ya tiene 23 la madre llorando, su hijo a cambiado tiene mala amistades y hasta drogas también Consejos le dio y nunca a su madre escuchó Un día tocaron la puerta oficiales buscando un asesino con su descripciónla madre no lo creía y llorando decía mi hijo a nadie mató. Y la madre llorando de pena gritaba en llantos ten piedad mi Dios le importaba un comino las pruebas su hijo era inocente en su corazón mientra el hijo sufría en la cárcel mas sufrió su madre, () y murió. El hijo ahora analiza lo buena que fue su madre y nunca la valoró se hecha toda la culpa y recordar como fue es un castigo de Dios. Repite Coro (2 veces) Esta barrita ( / ) significa arrastrar hasta el traste indicado Por ejemplo si aparece '12/14', tenes que tocar la cuerda en el traste 12 y arrastrar el dedo hasta el traste 14. Bueno, este es el primer tema que mando, entonces puede tener errores. De todas formas suena bastante bien. Saludos para:PABLO,JONY,JUANMI,FER,CHRISTIAN,NAHUEL,GONZA,ERIKA,MAGALI ,MELODY,VERO,MAYRA,MARIA Y EL TANO QUE SON LO MEJOR QUE HAY III I( )I I---I I I ( ) I I I III I I I I---I I I I I I III I I I I
Este fichero es trabajo propio de su transcriptor y representa su interpretación personal de la canción. El material contenido en esta página es
para exclusivo uso privado, por lo que se prohibe su reproducción o retransmisión, así como su uso para fines comerciales.
© LaCuerda.net · Aviso Legal · Privacidad