Tablatura para Guitarra de los Auténticos Decadentes: Un osito de peluche de Taiwan
Conexión · Inscripción
Letras y Acordes
Pantalla Completa
Imprimir
Versión Texto
Añadir Favorito
Otras Versiones

Mostrar Diagramas
Desfile Automático
Manipular Acordes
Formato del Texto


los Auténticos Decadentes
Un osito de peluche de Taiwan(TAB)
calidad:
aude0383
AUTOR: Jorge Serrano
ALBUM: Sigue Tu Camino (2004)
Enviado por Pablo, basado en Martín
Un temaso de los autenticos, que por cieto es la canción que mas
me gusta.se toca creo con tres guitarras, una acustica y
dos electricas.


INTRO:
e|-------2-------------0-----------2-------5-----5------------
B|-----3---3-------------3-0-----3---3-------3-----3----------
G|---2-------2-------0---------2-------2-------4-----4--------  RIFF 1
D|-0---------------0---------0--------------------------------
A|------------------------------------------------------------
E|-------------0-3--------------------------------------------

e|-------2-------------0-----------2----------5---------------
B|-----3---3-------------3-0-----3---3--------3---------------
G|---2-------2-------0---------2-------2------4---------------  RIFF 2
D|-0---------------0---------0--------------------------------
A|------------------------------------------------------------
E|-------------0-3--------------------------------------------

INTRO(Guitarra electrica)(RIFF3):
e|------------------------------------9-10-
B|------------------------------10-12------
G|----------------------9-11-12------------
D|---------------9-11-12-------------------
A|-------9-10-12---------------------------
E|-10-12-----------------------------------


e|9----------------------------------------
B|--12-10----------------------------------
G|--------12-11-9--------------------------
D|----------------12-11-9------------------
A|------------------------12-10-9----------
E|--------------------------------12-10-12-

e|------------
B|------------
G|------------
D|------------
A|9----------9
E|--12-10-12--

NOTA:en el intro y en la parte instrumental se toca el RIFF 3 al mismo
 tiempo que el RIFF 1 y 2 (todo se repite dos veces)

Dentro de tus ojos veo un lago donde un hada se desnuda para que
LA adore el SOL... (RIFF 1) La melancolia de la tarde me ha ganado el corazon, y se nubla de dudas... (RIFF 1) “”son esos momentos en que“” uno se pone a reflexionar, te alumbra una (en esta parte no se toca) (y ahora se empieza desde mas adelante el tormenta... riff 1 todo es tan tranquilo que el silencio anuncia el ruido de la calma que antecede al huracán (RIFF 2)
D de repente no puedo respirar
Bm necesito un poco de libertad
G que te alejes por un tiempo de mi lado
A que me dejes en paz siempre fue mi manera de ser no me trates de comprender no hay nada que se pueda hacer soy un poco paranoico lo siento al ratito ya te empiezo a extrañar me preocupa que te pueda perder necesito que te acerques a mi para sentir el calor de tu cuerpo un osito de peluche de Taiwán una cáscara de nuez en el mar suavecito como alfombra de piel delicioso como el dulce de leche INSTRUMENTAL: (RIFF 1 + RIFF 2) -->> (x2) mientras otra guitarra al final hace esto, con notas ligadas: e|--7h10-7h10-7h10-7h10-7h10----10h12-10h12-10h12-10h12-10h12---20//-20// B|------------------------------------------------------------------^---- G|------------------------------------------------------aquí-baja-trastes D|--------------------------------------------------------muy-rápido----- A|----------------------------------------------------------------------- E|----------------------------------------------------------------------- MIENTRAS: RIFF3 X2 ESTROFAS: Dentro de mi lecho duerme un ángel que suspira boquiabierto entre nubes de algodón... e|------5-----5-------------- B|--------3-----3------------ G|----------4-----4---------- D|--------------------------- A|--------------------------- E|--------------------------- Junto con la luz de la mañana se despierta la razon y amanece la duda... e|---5--------------------7------7h10-7h10-7h10-7h10-7h10-- B|---5--------------------7-------------------------------- G|--------------------------------------------------------- e|---10h12-10-12h10-12h10-12h10-12h10---------------------- B|--------------------------------------------------------- | G|--------------------------------------------------------- | / e|------5-----5-------------- / al mismo B|--------3-----3------------ / G|----------4-----4---------- / tiempo D|--------------------------- / A|--------------------------- / E|--------------------------- _/ Son esos momentos en que uno se pone a reflexionar, te alumbra una tormenta (RIFF 1) Todo es tan tranquilo que el silencio anuncia el ruido de la calma que antecede al huracán (RIFF 2)
D de repente no puedo respirar
Bm necesito un poco de libertad
G que te alejes por un tiempo de mi lado
A que me dejes en paz siempre fue mi manera de ser no me trates de comprender no hay nada que se pueda hacer soy un poco paranoico lo siento RIFF 4 e|--------------------------------------------------------------------- B|-10-10-10-8-8-8-7-7-7---------7p8-7-----------7p8-7------------------ G|------------------------9-7-9-------9-7-9-7-9-------9-7-9-7-9-7-6---- D|------------------------------------------------------------------9-7 al ratito ya te empiezo a extrañar me preocupa que te pueda perder, necesito que te acerques a mi, para sentir el calor de tu cuerpo... un osito de peluche de Taiwán una cáscara de nuez en el mar | RIFF 4 suavecito como alfombra de piel | delicioso como el dulce de leche / e|--------------------------- B|---5-555-55555------------- G|---5-555-55555------------- D|---5-555-55555------------- A|---3-333-33333------------- E|--------------------------- RIFF 4 (x2) al ratito ya te empiezo a extrañar me preocupa que te pueda perder | necesito que te acerques a mi | RIFF 4 para sentir el calor de tu cuerpo / un osito de peluche de Taiwán una cáscara de nuez en el mar suavecito como alfombra de piel delicioso como el dulce de leche
MI primera transcripcion! wuu!!!
Este fichero es trabajo propio de su transcriptor y representa su interpretación personal de la canción. El material contenido en esta página es
para exclusivo uso privado, por lo que se prohibe su reproducción o retransmisión, así como su uso para fines comerciales.
© LaCuerda.net · Aviso Legal · Privacidad