Tablatura para Guitarra de Attaque 77: Hacelo por mí
Conexión · Inscripción
Letras y Acordes
Pantalla Completa
Imprimir
Versión Texto
Añadir Favorito
Otras Versiones

Mostrar Diagramas
Desfile Automático
Manipular Acordes
Formato del Texto

Attaque 77
Hacelo por mí(TAB)
calidad:
at770506
AUTOR: Pertusi / Martinez
ALBUM: desconocido
Enviado por Tano
Intro (El cielo puede esperar):

E|--------------------------------|-------------------------------------------------|
B|-0------------------------------|-------------------------------------------------|
G|-1------------------------------|-------------------------------------------------|
D|-2-------2---------2----------2-|-2--1--6--6-------------------6--6---------------|
A|-2-------2---------2----------2-|-------------7--7--6--6--4--4------7--7--6--6--4-|
E|-0--0--0---0--0--0----0--0--0---|-------------------------------------------------|

E|--------------------------------|-------------------------------------------------|
B|-0------------------------------|-------------------------------------------------|
G|-1------------------------------|-------------------------------------------------|
D|-2-------2---------2----------2-|-2--1--6--6-------------------6--6---------------|
A|-2-------2---------2----------2-|-------------7--7--6--6--4--4------7--7--6--6--4-|
E|-0--0--0---0--0--0----0--0--0---|-------------------------------------------------|

E|------------------------------|------------------|
B|------------------------------|-------------5--4-|
G|-2--2--2--2--1----------------|-4--4--4--4--6--4-|
D|----------------4--4--4--4--4-|------------------|
A|------------------------------|------------------|
E|------------------------------|------------------|

E                   
Yo no sé lo que sentí 
      C#m  
esa tarde que te vi 
     A 
yo pensaba en otras cosas, 
        B  
fuiste mucho para mí. 
  
E                   
Yo creía en tus palabras,  
      C#m  
tu mirada me engañó 
     A 
Ahora sé que no sos mía,  
        B  
la culpa la tuve yo. 
  
     A 
Yo no quise lastimarte,  
      C#m  
jamás tuve esa intención 
     A 
Fuimos presos de un impulso,  
    B          F#m   B 
yo solo buscaba amor. 

E|--------------------------------|-------------------------------------------------|
B|-0------------------------------|-------------------------------------------------|
G|-1------------------------------|-------------------------------------------------|
D|-2-------2---------2----------2-|-2--1--6--6-------------------6--6---------------|
A|-2-------2---------2----------2-|-------------7--7--6--6--4--4------7--7--6--6--4-|
E|-0--0--0---0--0--0----0--0--0---|-------------------------------------------------|

E|--------------------------------|-------------------------------------------------|
B|-0------------------------------|-------------------------------------------------|
G|-1------------------------------|-------------------------------------------------|
D|-2-------2---------2----------2-|-2--1--6--6-------------------6--6---------------|
A|-2-------2---------2----------2-|-------------7--7--6--6--4--4------7--7--6--6--4-|
E|-0--0--0---0--0--0----0--0--0---|-------------------------------------------------|

E|------------------------------|------------------|
B|------------------------------|-------------5--4-|
G|-2--2--2--2--1----------------|-4--4--4--4--6--4-|
D|----------------4--4--4--4--4-|------------------|
A|------------------------------|------------------|
E|------------------------------|------------------|

E                   
Y cuando te veía en la calle,  
      C#m  
no podía evitar  
     A 
que el silencio se adueñara,  
        B  
me quedaba sin hablar. 
  
E                   
Ahora sé que no sos mía,  
      C#m  
la culpa la tuve yo. 
     A 
Si querés podes marcharte,  
        B  
solo te pido un favor. 
  
     A 
Si aun te queda algo de amor 
      C#m  
dentro de tu corazón 
     A 
no me mires a los ojos 
    B          F#m   B 
que me muero, yo me muero de dolor 
Hacelo por mi. 

E|--------------------------------|-------------------------------------------------|
B|-0------------------------------|-------------------------------------------------|
G|-1------------------------------|-------------------------------------------------|
D|-2-------2---------2----------2-|-2--1--6--6-------------------6--6---------------|
A|-2-------2---------2----------2-|-------------7--7--6--6--4--4------7--7--6--6--4-|
E|-0--0--0---0--0--0----0--0--0---|-------------------------------------------------|

E|--------------------------------|-------------------------------------------------|
B|-0------------------------------|-------------------------------------------------|
G|-1------------------------------|-------------------------------------------------|
D|-2-------2---------2----------2-|-2--1--6--6-------------------6--6---------------|
A|-2-------2---------2----------2-|-------------7--7--6--6--4--4------7--7--6--6--4-|
E|-0--0--0---0--0--0----0--0--0---|-------------------------------------------------|

E|------------------------------|------------------|
B|------------------------------|-------------5--4-|
G|-2--2--2--2--1----------------|-4--4--4--4--6--4-|
D|----------------4--4--4--4--4-|------------------|
A|------------------------------|------------------|
E|------------------------------|------------------|


E                   
Todo eso que sentía  
      C#m  
esa tarde que te vi 
     A 
ahora no tiene sentido,  
        B  
fue un mal sueño para mí. 
  
E                   
Y al pensar en tu mirada,  
      C#m  
ya no puedo sonreír 
     A 
si quermés podes marcharte,  
        B  
solo te quiero decir. 
  
     A 
Si aun te queda algo de amor 
      C#m  
dentro de tu corazón 
     A 
no me mires a los ojos 
    B                 F#m   B 
que me muero, yo me muero de dolor. 
Hacelo por mí. 

oh, no, no, no, no, no, no.

E|-------------------------------------------------------------------------------------|
B|------------9--7--9----9--7--9----5--4--5----5--4--5--------------9--7--9----9--7--9-|
G|----------9----------9----------6----------6--------------------9----------9---------|
D|-------------------------------------------------------------------------------------|
A|-------------------------------------------------------------------------------------|
E|-------------------------------------------------------------------------------------|
Hacelo por mi                                       Hacelo por mi           oh, no, no, 

E|-----------------------------------------------------------------------------|
B|---5--4--5----5--4--5--------------------------------------------------------|
G|-6----------6---------------------------2----------1---4----6-----------5--4-|
D|-----------------------------------------------------------------------------|
A|-----------------------------------------------------------------------------|
E|-----------------------------------------------------------------------------|
  no, no, no, no.            oh, no, no, no, no, no, no, no.  yeah, e, e, e, e.

C#m    A   E
Hacelo por mi.

Intro (Trapos):

E|-------0---------------------------------------------------------|
B|-------0---------------------------------------------------------|
G|-1--1--1---------------------------------------------------------|
D|-2--2---------1h2--6--6----------------6--6----------------------|
A|-2--2-----2h4------------7--7--6--6--4------7--7--6--6--4--------|
E|-0--0------------------------------------------------------------|

E|-------0---------------------------------------------------------|
B|-------0---------------------------------------------------------|
G|-1--1--1---------------------------------------------------------|
D|-2--2---------1h2--6--6----------------6--6----------------------|
A|-2--2-----2h4------------7--7--6--6--4------7--7--6--6--4--------|
E|-0--0------------------------------------------------------------|

E|----2---0----3--3--3--3--0-|
B|----2---0----3--3--3--3--2-|
G|----2---1----0--0--0--0--2-|
D|-4------2----0--0--0--0--2-|
A|-4------2----2--2--2--2--0-|
E|-2------0------------------|
Envía el tono de "Hacelo por mí" a tu celular/móvil
Este fichero es trabajo propio de su transcriptor y representa su interpretación personal de la canción. El material contenido en esta página es
para exclusivo uso privado, por lo que se prohibe su reproducción o retransmisión, así como su uso para fines comerciales.
© LaCuerda.net · Aviso Legal · Privacidad