Tablatura para Guitarra de Astor Piazzolla: Libertango
Conexión · Inscripción
Letras y Acordes
Pantalla Completa
Imprimir
Versión Texto
Añadir Favorito
Otras Versiones

Mostrar Diagramas
Desfile Automático
Manipular Acordes
Formato del Texto

Astor Piazzolla
Libertango(TAB)
calidad:
apia0041
AUTOR: Astor Piazzolla
ALBUM: Libertango (1996)
Enviado por Facundo
Libertango para dos guitarras, arriba se pueden ver los acordes
en notacion americana, mas abajo los especifico.

   Am
E||-----------------------------------8--5--|
B||-----5--6--5-----------------6--5--------|
G||-----5-----------------------------------|
D||-----------------------------------------|
A||-----------------------------------------|
E||--5--------5-----------------------5-----|

                              B7
|--------------8--5--------|--------------------7-----|
|-----5--6--5--------5--6--|-----4--5--4--5--4-----7--|
|--------------------------|--------------------------|
|--------------------------|--------------------------|
|--------------------------|--------------------------|
|--5--------5--------5-----|--5--------5--------5-----|

                              Dm6
|--------------7-----------|--------------------7-----|
|-----4--5--4-----7--4--5--|-----3--5--3--5--3-----6--|
|--------------------------|--------------------------|
|--------------------------|--------------------------|
|--------------------------|--------------------------|
|--5--------5--------5-----|--5--------5--------5-----|


                              Am
|--------------5-----------|--------------------5-----|
|-----3--5--3-----6--3--5--|-----------------------5--|
|--------------------------|-----5--7--5--7--5--------|
|--------------------------|--------------------------|
|--------------------------|--------------------------|
|--5--------5--------5-----|--5--------5--------5-----|


                              C6
|--------------5-----------|--------------------5--0--|
|-----------------5--------|-----1--3--1--3--1--------|
|-----5--7--5--------5--7--|--------------------------|
|--------------------------|--------------------------|
|--------------------------|--------------------------|
|--5--------5--------5-----|--3--------3--------3-----|


                              F#dim
|--------------5--0--------|--------------------5-----|
|-----1--3--1--------1--3--|-----1--3--1--3--1-----4--|
|--------------------------|--------------------------|
|--------------------------|--------------------------|
|--------------------------|--------------------------|
|--3--------3--------3-----|--2--------2--------2-----|


                              Fdim
|--------------5-----------|--------------------4-----|
|-----1--3--1-----4--1--3--|-----0--1--0--1--0-----3--|
|--------------------------|--------------------------|
|--------------------------|--------------------------|
|--------------------------|--------------------------|
|--2--------2--------2-----|--1--------1--------1-----|


                              E7
|--------------4-----------|--------------------4-----|
|-----0--1--0-----3--0--1--|-----0--1--0--1--0-----3--|
|--------------------------|--------------------------|
|--------------------------|--------------------------|
|--------------------------|--------------------------|
|--1--------1--------1-----|--0--------0--------0-----|

                              Am
|--------------4-----------|--------------------8--5--|
|-----0--1--0-----3--0--1--|-----5--6--5--6--5--------|
|--------------------------|-----5--------------------|
|--------------------------|--------------------------|
|--------------------------|--------------------------|
|--0--------0--------0-----|--5--------5--------5-----|

                              B7
|--------------8--5--------|--------------------7-----|
|-----5--6--5--------5--6--|-----4--5--4--5--4-----7--|
|--------------------------|--------------------------|
|--------------------------|--------------------------|
|--------------------------|--------------------------|
|--5--------5--------5-----|--5--------5--------5-----|


                              Dm6
--------------7-----------|--------------------7-----|
-----4--5--4-----7--4--5--|-----3--5--3--5--3-----6--|
--------------------------|--------------------------|
--------------------------|--------------------------|
--------------------------|--------------------------|
--5--------5--------5-----|--5--------5--------5-----|

                              Am
--------------5-----------|--------------------5-----|
-----3--5--3-----6--3--5--|-----------------------5--|
--------------------------|-----5--7--5--7--5--------|
--------------------------|--------------------------|
--------------------------|--------------------------|
--5--------5--------5-----|--5--------5--------5-----|

                              C6
--------------5-----------|--------------------5--0--|
-----------------5--------|-----1--3--1--3--1--------|
-----5--7--5--------5--7--|--------------------------|
--------------------------|--------------------------|
--------------------------|--------------------------|
--5--------5--------5-----|--3--------3--------3-----|

                              F#dim
--------------5--0--------|--------------------5-----|
-----1--3--1--------1--3--|-----1--3--1--3--1-----4--|
--------------------------|--------------------------|
--------------------------|--------------------------|
--------------------------|--------------------------|
--3--------3--------3-----|--2--------2--------2-----|

                              Fdim
--------------5-----------|--------------------4-----|
-----1--3--1-----4--1--3--|-----0--1--0--1--0-----3--|
--------------------------|--------------------------|
--------------------------|--------------------------|
--------------------------|--------------------------|
--2--------2--------2-----|--1--------1--------1-----|

                              E7
--------------4-----------|--------------------4-----|
-----0--1--0-----3--0--1--|-----0--1--0--1--0-----3--|
--------------------------|--------------------------|
--------------------------|--------------------------|
--------------------------|--------------------------|
--1--------1--------1-----|--0--------0--------0-----|

                              Am
--------------4-----------|--------------------8--5--|
-----0--1--0-----3--0--1--|-----5--6--5--6--5--------|
--------------------------|-----5--------------------|
--------------------------|--------------------------|
--------------------------|--------------------------|
--0--------0--------0-----|--5--------5--------5-----|

                              B7
--------------8--5--------|--------------------7-----|
-----5--6--5--------5--6--|-----4--5--4--5--4-----7--|
--------------------------|--------------------------|
--------------------------|--------------------------|
--------------------------|--------------------------|
--5--------5--------5-----|--5--------5--------5-----|

                              Dm6
--------------7-----------|--------------------7-----|
-----4--5--4-----7--4--5--|-----3--5--3--5--3-----6--|
--------------------------|--------------------------|
--------------------------|--------------------------|
--------------------------|--------------------------|
--5--------5--------5-----|--5--------5--------5-----|

                              Am
--------------5-----------|--------------------5-----|
-----3--5--3-----6--3--5--|-----------------------5--|
--------------------------|-----5--7--5--7--5--------|
--------------------------|--------------------------|
--------------------------|--------------------------|
--5--------5--------5-----|--5--------5--------5-----|

                              C6
--------------5-----------|--------------------5--0--|
-----------------5--------|-----1--3--1--3--1--------|
-----5--7--5--------5--7--|--------------------------|
--------------------------|--------------------------|
--------------------------|--------------------------|
--5--------5--------5-----|--3--------3--------3-----|


                              F#dim
--------------5--0--------|--------------------5-----|
-----1--3--1--------1--3--|-----1--3--1--3--1-----4--|
--------------------------|--------------------------|
--------------------------|--------------------------|
--------------------------|--------------------------|
--3--------3--------3-----|--2--------2--------2-----|

                              Fdim
--------------5-----------|--------------------4-----|
-----1--3--1-----4--1--3--|-----0--1--0--1--0-----3--|
--------------------------|--------------------------|
--------------------------|--------------------------|
--------------------------|--------------------------|
--2--------2--------2-----|--1--------1--------1-----|

                              B7
--------------4-----------|--------------------4-----|
-----0--1--0-----3--0--1--|-----0--1--0--1--0-----3--|
--------------------------|--------------------------|
--------------------------|--------------------------|
--------------------------|--------------------------|
--1--------1--------1-----|--0--------0--------0-----|

                              G6add9 
--------------4-----------|--------------------------|
-----0--1--0-----3--0--1--|--------------------------|
--------------------------|--------------7-----0-----|
--------------------------|-----5--7--5-----8-----7--|
--------------------------|--------------------------|
--0--------0--------0-----|--7--------7--------0-----|

                              A
--------------------------|--------------------------|
--------------2-----------|--------------------6-----|
--------2--------3--------|-----------------------7--|
-----5-----5--------7--5--|-----7--8--7--8--7--------|
--------------------------|--5--------5--------5-----|
--5--------5--------5-----|--------------------------|

                              F6
--------------------------|--------------------------|
--------------6--------0--|--------------------------|
--------3--------7--------|--------------5--1--------|
-----7-----7--------7-----|-----3--5--3--------3--5--|
--5--------5--------5-----|--------------------------|
--------------------------|--4--------4--------4-----|

                              Fm
--------------------------|--0--------0--------0-----|
--------------0-----------|--------1--------1--------|
--------0--------1--0-----|-----0--------0--------0--|
-----3-----3-----------3--|--------------------------|
--------------------------|--3--------3--------------|
--3--------3--------3-----|--------------------------|

                              Gm
--0--------0--------0-----|-----0-----0-----0--8--5--|
--------0--------0--------|--------6-----6-----------|
-----1--------1--------1--|-----5--------------------|
--------------------------|--------------------------|
--2--------2--------------|--------------------------|
--------------------------|--5--------5--------5-----|

                              G7
-----0-----0--8--5--0-----|--------0-----0-----7-----|
--------6--------------6--|-----0-----4-----4-----7--|
-----5--------------------|-----8--------------------|
--------------------------|--------------------------|
--------------------------|--------------------------|
--5--------5--------5-----|--5--------5--------5-----|

                              C
--------0-----7--------0--|--------0-----0-----7-----|
-----0-----4-----7--4-----|-----0-----3-----3-----6--|
-----8--------------------|-----7--------------------|
--------------------------|--------------------------|
--------------------------|--------------------------|
--5--------5--------5-----|--5--------5--------5-----|

                              E
--------0-----7--------0--|--------------------5-----|
-----0-----3-----6--------|-----------------------5--|
-----7--------------7-----|-----5--7--5--7--5--------|
--------------------------|-----7--------------------|
--------------------------|--------------------------|
--5--------5--------5-----|--5--------5--------5-----|


                              Am
--------------5-----------||----------------------------8--5--|
-----------------5-----5--||-------------5--6--5--6--5--------|
-----5--7--5--------5-----||*------------5--------------------|
-----7--------------------||*---------------------------------|
--------------------------||----------------------------------|
--5--------5--------5-----||---5---------------5--------5-----|


                              B7
--------------8--5--------|--------------------7-----|
-----5--6--5--------5--6--|-----4--5--4--5--4-----7--|
--------------------------|--------------------------|
--------------------------|--------------------------|
--------------------------|--------------------------|
--5--------5--------5-----|--5--------5--------5-----|

                             Dm6
--------------7-----------|--------------------7-----|
-----4--5--4-----7--4--5--|-----3--5--3--5--3-----6--|
--------------------------|--------------------------|
--------------------------|--------------------------|
--------------------------|--------------------------|
--5--------5--------5-----|--5--------5--------5-----|

                              Am
--------------5-----------|--------------------5-----|
-----3--5--3-----6--3--5--|-----------------------5--|
--------------------------|-----5--7--5--7--5--------|
--------------------------|--------------------------|
--------------------------|--------------------------|
--5--------5--------5-----|--5--------5--------5-----|

                              C6
--------------5-----------|--------------------5--0--|
-----------------5--------|-----1--3--1--3--1--------|
-----5--7--5--------5--7--|--------------------------|
--------------------------|--------------------------|
--------------------------|--------------------------|
--5--------5--------5-----|--3--------3--------3-----|


                              F#dim
--------------5--0--------|--------------------5-----|
-----1--3--1--------1--3--|-----1--3--1--3--1-----4--|
--------------------------|--------------------------|
--------------------------|--------------------------|
--------------------------|--------------------------|
--3--------3--------3-----|--2--------2--------2-----|


                              Fdim
--------------5-----------|--------------------4-----|
-----1--3--1-----4--1--3--|-----0--1--0--1--0-----3--|
--------------------------|--------------------------|
--------------------------|--------------------------|
--------------------------|--------------------------|
--2--------2--------2-----|--1--------1--------1-----|

                              E7
--------------4-----------|--------------------4-----|
-----0--1--0-----3--0--1--|-----0--1--0--1--0-----3--|
--------------------------|--------------------------|
--------------------------|--------------------------|
--------------------------|--------------------------|
--1--------1--------1-----|--0--------0--------0-----|



--------------4------------||
-----0--1--0-----3--0--1---||
--------------------------*||
--------------------------*||
---------------------------||
--0--------0--------0------||




Bueno, tambien deje los acordes y si hay alguna duda serian:

    Am  B7  Dm6 C6 F#dim Fdim  E7  G7 G6add9 
E||-5-|-2-|-1-|-5-|-5---|-4--|-4-|---|-------|
B||-5-|-4-|-3-|-5-|-4---|-3--|-3-|-0-|-3-----|
G||-5-|-4-|-4-|-5-|-5---|-4--|-4-|-0-|-3-----|
D||-7-|-4-|-3-|-5-|-4---|-3--|-2-|-3-|-5-----|
A||-7-|-0-|-0-|---|-----|----|-2-|-2-|-2-----|
E||-7-|---|---|---|-----|----|-0-|-3-|-0-----|

Creo que la partitura en si esta perfecta lo que quizas tenga
errores es la tabulacion de los acordes, si hay algun problema
por favor enviarme un mail.

Saludos!
Envía el tono de "Libertango" a tu celular/móvil
Este fichero es trabajo propio de su transcriptor y representa su interpretación personal de la canción. El material contenido en esta página es
para exclusivo uso privado, por lo que se prohibe su reproducción o retransmisión, así como su uso para fines comerciales.
© LaCuerda.net · Aviso Legal · Privacidad