Tablatura para Guitarra de Armando Rosas: Herraje
Conexión · Inscripción
Letras y Acordes
Pantalla Completa
Imprimir
Versión Texto
Añadir Favorito
Otras Versiones

Mostrar Diagramas
Desfile Automático
Manipular Acordes
Formato del Texto

Armando Rosas
Herraje(TAB)
calidad:
aros0151
AUTOR: Armando Rosas
ALBUM: En vivo en Argentina (2006)
Enviado por Emiliano
Esta rola la saque de oido por eso no se como se llaman los acordes
originales, lo cierto es que se escucha bien espero que les agrade


Acordes*
    |Eadgbe
-----------
Gm  |355333
Gm* |30333x
Gm*2|30233x
Gm*3|30133x
Gm*4|30323x
Cm7 |335343
Dm7 |557565
F/A |x0121x


Intro:
   [ punteado ]
e|-----------------------------------
b|-------3--------3--------3--------3
g|---3-3------3-3------3-3------3-3--
d|---3-3------2-2------1-1------2-2--
a|-----------------------------------
E|-3---3----3---3----3---3----3---3--
   Gm*      Gm*2     Gm*3     Gm*2

  [ rasgueo suave y arpegio ]
-------------------------------------------|
-------3---3-----3---3-----3---3----3-3----|
-----2---2-----2---2-----2---2-----2-2--2-2|
----3---------3---------3---------3-----3-3|
---0---------0---------0---------0---------|
--3---------3---------3---------3-------3-3|
  Gm*4

intro...          Gm         Gm*2             Cm7   Dm7
Descansa sobre aquel barandal el peso de la ausencia
               Gm         Gm*2        Cm7           Dm7
aroma de un herraje ancestral pregona tus querencias
              Cm7                   Gm*4        5-3-1-0 [ 5a cuerda ]
oleaje que se niega a borrar dibujos en la arena
             F/A           Dm7            Gm*-Gm*2-Gm*3-Gm*4
marea que se agolpa al tratar de desprender tu huella

                Gm            Gm*2            Cm7   Dm7
recuerdo que se mece al vaivén de una roja maceta
               Gm         Gm*2       Cm7          Dm7
aliento que sugiere un dogal platica tus dolencias
              Cm7                    Gm*4       5-3-1-0 [ 5a cuerda ]
oleaje que se niega a borrar dibujos en la arena
             F/A           Dm7                    Gm*-Gm*2-Gm*3-Gm*4
marea que se agolpa al tratar de desprender tu huella

        Cm7                Gm
si una tarde de abril no regresas
        Cm7            Gm
si me agita una nueva marea
       Cm7            Gm
bajo el sol tendre el recuerdo de ayer
                  F/A-Dm7              secuencia media*
y entonces buscare       otra nueva vereda


 [Secuencia media]*
   Gm*      Gm*2     Gm*3     Gm*2     Gm*4
e|----------------------------------------------------|
b|-------3--------3--------3--------3------3----------|
g|---3-3------3-3------3-3------3-3-------2---[12]----|_ _
d|---3-3------2-2------1-1------2-2------3-------[12]-|   |
a|--------------------------------------0-------------|   |
E|-3---3----3---3----3---3----3---3----3--------------|   |  continua
                                                          '

  Gm*      Gm*  Cm7 Dm7
e|---------------------------33-3-33-3-
b|------3---------4-4---6-6--33-3-33-3-
g|--3-3-----3-3---3-3---5-5------------
d|--3-3-----3-3---5-5---7-7--55-5-44-4-
a|--------------3-----5----------------
E|3---3---3---3------------------------

 Cm7 Dm7  Cm7      Gm
------------------------------------------------------------------|
-4-4-6-6----4-3--4-3--3-3---------1-1---6-6-----------------------|
-3-3-5-5---------3-3--3-3---------2-2---5-5---3-3---3-3---3-3--- 3|
-5-5-7-7--------------------------1-1---7-7---3-3---2-2---1-1---2-|
-3-3-5-5--3------3-3-5----5-3-1-0---0-5---5--------------------0--|
--------------------------------------------3---3-3-----3---3-3---|
                  Gm         Gm*2             Cm7   Dm7
Descansa sobre aquel barandal el peso de la ausencia
               Gm         Gm*2        Cm7           Dm7
aroma de un herraje ancestral pregona tus querencias
              Cm7                   Gm*4        5-3-1-0 [ 5a cuerda ]
oleaje que se niega a borrar dibujos en la arena
             F/A           Dm7                    Gm*-Gm*2-Gm*3-Gm*2-Gm*4
marea que se agolpa al tratar de desprender tu huella
Envía el tono de "Herraje" a tu celular/móvil
Este fichero es trabajo propio de su transcriptor y representa su interpretación personal de la canción. El material contenido en esta página es
para exclusivo uso privado, por lo que se prohibe su reproducción o retransmisión, así como su uso para fines comerciales.
© LaCuerda.net · Aviso Legal · Privacidad