Tablatura para Guitarra de Los Apson: Fue en un café
Conexión · Inscripción
Letras y Acordes
Pantalla Completa
Imprimir
Versión Texto
Añadir Favorito
Otras Versiones

Mostrar Diagramas
Desfile Automático
Manipular Acordes
Formato del Texto

Los Apson
Fue en un café(TAB)
calidad:
apso0062
AUTOR: Art Resnick, Kenny Young
ALBUM: Historia de Exitos (60-70)
Intro:
   F             3 ó 4 veces    
4|-------------|----------|
5|----0-3------|--0-3-----|
6|-1-------0-1-|------0-1-|


        F                        
Cuando yo recuerdo 
                 C
que una vez la abandoné
          Gm 
y hoy me pongo a llorar 
     C7                     F 
y no sé qué hacer para olvidar..

F7       Bb               F       
oh yo no se, que voy a hacer, 
      C               C7 
su ausencia me mata y yo
             F    |----
no puedo volver.

------------Dm                   C               
Fue en un café... donde yo la dejé
               Dm                    C   
fue en en un café..  donde la abandoné
             Dm                  C
fue en un café.. donde la vi llorar
            Dm                 C
fue en un café y no supe escuchar
            Dm -------------  
fue en un café, eh eh eh.

1|------------------------
2|---------0-0/2----------
3|----0-2--------2/0-0----
4|--3------------------3-- 
5|------------------------
6|------------------------

        F
cuando yo recuerdo 
                    C
que una vez me engañó 
                    Gm             
y el dolor me hace ver, 
          C7              F
que al dejarla yo tuve razón.

F7       Bb               F       
oh yo no se, que voy a hacer, 
      C               C7 
su ausencia me mata y yo
             F    |----
no puedo volver.

------------Dm                                 
Fue en un café...
                        F
1|------------------------|--------------------------|
2|---------0-0/2----------|--------------------------|
3|----0-2--------2/0-0----|--------------------------|
4|--3------------------3--|-0-2-2/3-3-3-3-2-0----2-2-|
5|------------------------|-------------------3------|
6|------------------------|--------------------------|
         C    
 |----------|----------------------------------------|
 |----------|----------------------------------------|
 |-3b2b0-0--|-0-2-2/3-2--0-2/3-2--0-2/3-2-0----------|
 |----------|--------------------------------3-2-0---|
 |----------|--------------------------------------3-|
 |----------|----------------------------------------|
                F7
|-------0----------|
|-0-0/2---2/0------|
|-------------2----|
|---------------3--|
|------------------|
|------------------|         Bb
                    Oh yo no sé…
Envía el tono de "Fue en un café" a tu celular/móvil
Este fichero es trabajo propio de su transcriptor y representa su interpretación personal de la canción. El material contenido en esta página es
para exclusivo uso privado, por lo que se prohibe su reproducción o retransmisión, así como su uso para fines comerciales.
© LaCuerda.net · Aviso Legal · Privacidad