Tablatura para Guitarra de Antonio Banderas: La balada del pistolero
Conexión · Inscripción
Letras y Acordes
Pantalla Completa
Imprimir
Versión Texto
Añadir Favorito
Otras Versiones

Mostrar Diagramas
Desfile Automático
Manipular Acordes
Formato del Texto

Antonio Banderas
La balada del pistolero(TAB)
calidad:
anot0021
AUTOR: Antonio Banderas  corregir
ALBUM: desconocido
Enviado por weimar
Acá esta Este súper tema que va dedicado para todos los latinos.
Esta con los intermedios y todo, espero que les guste, notaran
La calidad de la Transcripción si se guían con el tema.

Antonio Banderas - La balada del pistolero

ACORDES:

Em = MIm
B7 = SI7
Am = LAm

INTRO:

e|---------7-7-7-7-8-7-7---8-7-7------|-------5-5-5-5-7-5-5-5h7-5-5----|
B|-------8-8-8-8-8-8-8-8-8-8-8-8-8-10-|-------7-7-7-7-7-7-7-7-7-7-7----|
G|-----9-----------------9-------9-11-|-----7----------------------7-8-|
D|---9--------------------------------|---7------------------------8-9-|
A|------------------------------------|--------------------------------|
E|------------------------------------|--------------------------------|

Em                                          B7
Soy un hombre muy honrado, que me gusta lo mejor
                                              Em
Las mujeres no me faltan ni el dinero ni el amor   e|--7h8--7-5--------|
                                                   B|-----------7-5-6--|
                                                   G|------------------|
Em                                            B7
Gineteando en mi caballo, por la sierra yo me voy

                                                         Em
           Las estrellas y la luna, ellas me dicen donde voy
e|--0-5-8-7-|-----0-5-8-7----|-----0-5-8-7------|---0-5-8-7----|
B|----------|----------------|------------------|--------------|

   Am                      Em
   Ay    ,  ay   ,  ay   ,  ay
e|-8-7-6-+-8-7-6-|-6-5-4-+-6-5-4-|
B|-------+-------|-------+-------|
G|-------+-------|-------+-------|

    B7                    Em
    Ay   ,  ay   ,     MI amor
e|-------+-------|--------|--------|
B|-9-8-7-+-9-8-7-|-11-8-7-|-10-8-7-|
G|-------+-------|--------+--------|

   Am               Em    B7                  Em
   Ay    mi    morena      de       mi     corazón
e|-8-7-6-+-8-7-6-|-6-5-4-+-6-5-4-|-------|---------|
B|-------+-------|-------+-------|-9-8-7-|-9-8-7---|
G|-------+-------|-------+-------|-------|-------9-|

INTRO (CON UNA PEQUEÑA VARIACION)

e|---------7-7-7-7-8-7-7---8-7-7------|-------5-5-5-5h7-5-5-5-7-5-5----|
B|-------8-8-8-8-8-8-8-8-8-8-8-8-8-10-|-------7-7-7-7-7-7-7-7-7-7-7----|
G|-----9-----------------9-------9-11-|-----7----------------------7-8-|
D|---9--------------------------------|---7------------------------8-9-|
A|------------------------------------|--------------------------------|
E|------------------------------------|--------------------------------|

Em                                            B7
Me gusta tocar guitarra, me gusta cantar al sol   PUNTEADOS CON ARRASTRE(h)
                                                           Em
            Mi mariachi me acompaña, cuando canto mi cancion
e|--2h3---2h3---2h3---2h3---2h3---2h3---2h3---2h3--+--2h4--|
B|--2h4---2h4---2h4---2h4---2h4---2h4---2h4---2h4--+--2h3--|
G|---------------------------------------------------------|
D|---------------------------------------------------------|

Em                                                                   B7
Me gusta tomar mis copas, e|--7h8--7-5--------| aguardiente es lo mejor
                          B|-----------7-5-6--|
                          G|------------------|
                                               Em
Tambien el tequila blanca, con su sal le da sabor


   Am                       Em
   Ay    ,  ay   ,  ay   ,  ay
e|-8-7-6-+-8-7-6-|-6-5-4-+-6-5-4-|
B|-------+-------|-------+-------|
G|-------+-------|-------+-------|

    B7                     Em
    Ay   ,  ay   ,     MI amor
e|-------+-------|--------|--------|
B|-9-8-7-+-9-8-7-|-11-8-7-|-10-8-7-|
G|-------+-------|--------+--------|

   Am              Em     B7                   Em
   Ay    mi    morena      de       mi     corazón
e|-8-7-6-+-8-7-6-|-6-5-4-+-6-5-4-|-------|---------|
B|-------+-------|-------+-------|-9-8-7-|-9-8-7---|
G|-------+-------|-------+-------|-------|-------9-|


(CON PUENTE)

Em-B7-Em-B7-Em-B7-Em-B7-Em-B7-Em

SOLO:

e|-----------12----------------11----------------11-----------|
B|--12----12----12----12----12----12----12----12----12----12--|
G|-----10----------10----10----------10----10----------10-----|
D|------------------------------------------------------------|
A|------------------------------------------------------------|
E|------------------------------------------------------------|

           -(ENTRA LA SEGUNDA GUITARRA CON EL RRASGUEO)
           *
e|-------12---------------12----------------11-|
b|----12----12----12---12----12----12----12----|
G|-10----------10----10---------10----10-------|
D|---------------------------------------------|
A|---------------------------------------------|
E|---------------------------------------------|

e|-------------------11----------------12|
b|-12----12----12-------12----12----12---|
G|----10----10----11-------10----10------|
D|---------------------------------------|
A|---------------------------------------|
E|---------------------------------------|

e|----12---12-----11-------10------8------|
b|-12----12---12-----12-------10------9---|
G|----------------------10-------8------7-|
D|----------------------------------------|
A|----------------------------------------|
E|----------------------------------------|

e|-7--------5--------4--------2--------0-----------|
b|----7--------6--------4--------3--------0-----0--|
G|-------5--------4--------2--------1--------1-----|
D|-------------------------------------------------|
A|-------------------------------------------------|
E|-------------------------------------------------|

e|----------------------|----------2--|----------3--|
b|-0-0-0-3-2-1----------|--0-0-4-5----|--0-0-4-5----|
G|-------------3-2-1----|-------------|-------------|
D|-------------------2--|-------------|-------------|
A|----------------------|-------------|-------------|
E|----------------------|-------------|-------------|

e|----------2-0-3h5-3-2-------|
b|--0-0-4-5-------------3-3h4-|
G|----------------------------|
D|----------------------------|
A|----------------------------|
E|----------------------------|

SILENCIO:

Me gusta tocar guitarra, me gusta cantar el sol   e|--5h7-5-3-------|
                                                  B|----------3h5---|
                                              Em  G|----------------|
Mi mariachi me acompaña, cuando canto mi cancion


Em                                            B7
Me gusta tomar mis copas, aguardiente es lo mejor
                                                Em
Tambien el tequila blanca, con su sal le da sabor..

Am           Em
Ay, ay, ay, ay
B7           Em
Ay, ay, mi amor
Am       Em  B7         Em
Ay mi morena de mi corazón

Am           Em
Ay, ay, ay, ay
B7           Em
Ay, ay, mi amor
Am       Em  B7        Em
Ay mi morena de mi corazón....

Bueno eso fue todo. Si tienen dudas o preguntas sobre el tema,
solo tienen te mandar un e-mail a mi correo, o en tal caso
agreguen al Messenger, casi siempre estoy en línea.
Bye y suerte con la canción.
Envía el tono de "La balada del pistolero" a tu celular/móvil
Este fichero es trabajo propio de su transcriptor y representa su interpretación personal de la canción. El material contenido en esta página es
para exclusivo uso privado, por lo que se prohibe su reproducción o retransmisión, así como su uso para fines comerciales.
© LaCuerda.net · Aviso Legal · Privacidad