Tablatura para Guitarra de Antonio Banderas: La balada del pistolero
Conexión · Inscripción
Letras y Acordes
Pantalla Completa
Imprimir
Versión Texto
Añadir Favorito
Otras Versiones

Mostrar Diagramas
Desfile Automático
Manipular Acordes
Formato del Texto

Antonio Banderas
La balada del pistolero(TAB)
calidad:
anot0022
AUTOR: Antonio Banderas  corregir
ALBUM: desconocido
Enviado por ADRIAN
PRE-INTRO:
e|------------------------------------------------------|
B|------------------------------------------------------|
G|------------------------------------------------------|
D|------------------------------------------------------|
A|-2-3-0-2----0-----------------------------------------|
E|----------3-------2--3--0-----------------------------|


e|-------------------0-0---------------------------------|
B|-------0-0-1---0-0-0-0-0----------------------0----1---|
G|-------0-0-2---0-0-0-0-0-0--2---------2-2-2---0--2-2---|
D|-----2-------------------2--4------4--4-4-4------4-----|
A|---2-----------------------------2---------------------|
E|-0-----------------------------------------------------|

e|----------------------------------------0--|
B|--1-0---0-------------------------------0--|
G|------0---2-----2--0----0---------------0--|
D|------------4--------2-----4----1---4---2--|
A|----------------------------------------2--|
E|----------------------------------------0--|
INTRO:
                                        B
e|--------7-7--7-7--8-7--7----8-7--7--------
B|------8-8-8--8-8--8-8--8-8--8-8--8-8--10--
G|----9--------------------9---------9--11--
D|--9---------------------------------------
A|------------------------------------------
E|------------------------------------------

                                       Em
e|-------5-5--5-5--7-5--5-5-7--5-5----------
B|-------7-7--7-7--7-7--7-7-7--7-7--7--8----
G|----8-----------------------------8--9----
D|--9---------------------------------------
A|------------------------------------------
E|------------------------------------------

  Verso 1

(Em)                                         B
Soy un hombre muy honrado, que le gusta lo mejor(riff 1)
e|-------------------------------------------------------7-|
B|----------------------------------------------------7----|
G|-------------------------------------------------8-------|
D|----------------------------------------------9----------|
                                             Em
A mujeres no me faltan, ni el dinero, ni el amor(riff 2)
e|------------------------------------------8--7------------|
B|-----------------------------------------------10--8-7----|
G|--------------------------------------------------------9-|
                                              B
Jineteando en mi caballo, por la sierra yo me voy(riff 3)
e|--------------------------------5-8--7---5-8--7------5-8--7-
B|----------------------------5-8-----------------------------
G|------------------------------------------------------------
                                             Em
Las estrellas y la luna ellas me dicen donde voy

-Estribillo-
Ay    ,  ay   ,  ay   ,  ay , ay ,   ay   MI amor.
    Am             Em           B            Em
e|--8-------8----8-7------7---7-5------5---5-3------3---3----
B|----10------10-----8------8-----7------7-----5------5------
G|-------9-------------9------------8------------4-----------
D|-----------------------------------------------------------
A|-----------------------------------------------------------
E|-----------------------------------------------------------

   Ay    mi  morena   de     mi     corazon
     Am             Em           B            Em
e|--8-------8----8-7------7---7-5------5---------------------
B|----10------10-----8------8-----7------8-7-5---------------
G|-------9-------------9------------8------------------------
D|-----------------------------------------------------------
A|-----------------------------------------------------------
E|-----------------------------------------------------------

INTRO:
                                        B
e|--------7-7--7-7--8-7--7----8-7--7--------
B|------8-8-8--8-8--8-8--8-8--8-8--8-8--10--
G|----9--------------------9---------9--11--
D|--9---------------------------------------
A|------------------------------------------
E|------------------------------------------

                                       Em
e|-------5-5--5-5--7-5--5-5-7--5-5----------
B|-------7-7--7-7--7-7--7-7-7--7-7--7--8----
G|----8-----------------------------8--9----
D|--9---------------------------------------
A|------------------------------------------
E|------------------------------------------

                                          B
Me gusta tocar guitarra, me gusta cantar el son
                                         Em
Mariachi me acompaña cuando canto mi canción
e|--7-7--7-7-7-7--7--7------------|
B|--7-7--7-7-7-7--7----8-------8--|
G|--8-8--8-8-8-8--8-------9------9|
D|--------------------------9-----|
                                              B
Me gusta tomar mis copas, agua ardiente es lo mejor
e|-8-7-------7-7-----7-------7-|
B|-----8---8-----8-----8-------|
G|-------9---------9-----9-8---|
                                             Em
Tambien el tequila blanco con su sal le da sabor
e|-7--------------------------------|
B|-----8--7--5----------------------|
G|--------------8-5”--4--4--4-------|
D|-----------------------------2----|

-Estribillo-
Ay    ,  ay   ,  ay   ,  ay , ay ,   ay   MI amor.
    Am             Em           B            Em
e|--8-------8----8-7------7---7-5------5---5-3------3---3-------
B|----10------10-----8------8-----7------7-----5------5---------
G|-------9-------------9------------8------------4--------------
D|--------------------------------------------------------------
A|--------------------------------------------------------------
E|--------------------------------------------------------------

   Ay    mi  morena   de     mi     corazon
     Am             Em           B            Em
e|--8-------8----8-7------7---7-5------5------------------------
B|----10------10-----8------8-----7------8-7-5------------------
G|-------9-------------9------------8---------------------------
D|--------------------------------------------------------------
A|--------------------------------------------------------------
E|--------------------------------------------------------------


SOLO:
e|------12-------11-------11-------12-------12-------11|---11-----12
B|-12-12-12-12-12-12-12-12-12-12-12-12-12-12-12-12-12--|--12--12-12-
G|--11------11-11----11-11----11-11----11-11----11-11--|-11--11-11--
D|------------------------------------------------------------------
A|------------------------------------------------------------------
E|------------------------------------------------------------------

e|---12--12---10--10-9--9-7-7-5-5-3-3-2-2-0-0---------|
B|--12--12---12-12----10---9---7---5---3---0-3-0-3-1-0|
G|-11--11---11----------------------------------------|
D|----------------------------------------------------|
A|----------------------------------------------------|
E|----------------------------------------------------|

e|---------------|------0-2-----0-2-3-------0-2---7-5-3-2-0-|
B|-0---0---------|-0-0-4-----0-0-------0-0-4----------------|
G|--0---2-0------|------------------------------------------|
D|---2---1-2-----|------------------------------------------|
A|----2---2-2----|------------------------------------------|
E|------------0--|------------------------------------------|

  (golpeando la guitarra)

                                       B
Me gusta tocar guitarra, me cantar el son
e|--------------------------------7-8-7-----------|
B|--------------------------------------10-7------|
G|-------------------------------------------8/9~-|
                                          Em
Mariachi me acompaña cuando canto mi canción

                                               B
Me gusta tomar mis copas, agua ardiente es lo mejor
e|-----7---7---- 7--------8-7-------|
B|-----------------8--10------------|
                                              Em
tambien el taquila blanco, con su sal le da sabor
e|------------------------------7--------------|
B|--------------------------------8------------|
G|----------------------------------8--11--9---|

-Estribillo-
Ay    ,  ay   ,  ay   ,  ay , ay ,   ay   MI amor.
    Am           Em         B          Em
e|-------8--8--------7--7-------5--5-------3--3---------
B|----10-10-10-----8-8--8-----7-7--7-----5-5--5---------
G|--9------------9----------8----------4----------------
D|------------------------------------------------------
A|------------------------------------------------------
E|------------------------------------------------------

   Ay    mi  morena   de     mi     corazon
     Am          Em        B         Em
e|-----8---8-------7--7------5--5------3--3-------------
B|-----10--10------8--8------7--7------5--5-------------
G|---9-9---9-----9-9--9----8-8--8----4-4--4-------------
D|------------------------------------------------------
A|------------------------------------------------------
E|------------------------------------------------------

-Estribillo-
Ay    ,  ay   ,  ay   ,  ay , ay ,   ay   MI amor.
    Am           Em         B          Em
e|-------8--8--------7--7-------5--5-------3--3---------
B|----10-10-10-----8-8--8-----7-7--7-----5-5--5---------
G|--9------------9----------8----------4----------------
D|------------------------------------------------------
A|------------------------------------------------------
E|------------------------------------------------------

   Ay    mi  morena   de     mi     corazon
     Am          Em        B         Em
e|-----8---8-------7--7------5--5------3--3-------------
B|-----10--10------8--8------7--7------5--5-------------
G|---9-9---9-----9-9--9----8-8--8----4-4--4-------------
D|------------------------------------------------------
A|------------------------------------------------------
E|------------------------------------------------------

aqui es rapido pero dejando tiempos para q suene =

e|-12121212-12-12-12-12-12-12-1212121212121212--12------
Envía el tono de "La balada del pistolero" a tu celular/móvil
Este fichero es trabajo propio de su transcriptor y representa su interpretación personal de la canción. El material contenido en esta página es
para exclusivo uso privado, por lo que se prohibe su reproducción o retransmisión, así como su uso para fines comerciales.
© LaCuerda.net · Aviso Legal · Privacidad