Tablatura para Guitarra de Antonio Banderas: Canción del Mariachi
Conexión · Inscripción
Letras y Acordes
Pantalla Completa
Imprimir
Versión Texto
Añadir Favorito
Otras Versiones

Mostrar Diagramas
Desfile Automático
Manipular Acordes
Formato del Texto

Antonio Banderas
Canción del Mariachi(TAB)
calidad:
anot0015
AUTOR: Antonio Banderas  corregir
ALBUM: desconocido
Enviado por Cesar
esta rola esta enfocada en solo la guitarra principal,
ya que los ritmos todos nos los sabemos.
escuchen la rola original y echenle ganas,
si se puede, esto es mi contribucion
al site que me a dado mucho.

( esta rola va para mi bebito que viene en camino)

corregida a mi original!!!!!


e|------------------------------------------------------|
B|------------------------------------------------------|
G|------------------------------------------------------|
D|------------------------------------------------------|
A|-2-3-0-3----0-----------------------------------------|
E|----------3-------2--3--0-----------------------------|


e|-------------------0-0---------------------------------|
B|-------0-0-1---0-0-0-0-0----------------------0----1---|
G|-------0-0-2---0-0-0-0-0-0--2---------2-2-2---0--2-2---|
D|-----2-------------------2--4------4--4-4-4------4-----|
A|---2-----------------------------2---------------------|
E|-0-----------------------------------------------------|

e|----------------------------------------0--|
B|--1-0---0-------------------------------0--|
G|------0---2-----2--0----0---------------0--|
D|------------4--------2-----4----1---4---2--|
A|----------------------------------------2--|
E|----------------------------------------0--|


INTRO:
e|--------7-7--7-7---8-7--7-----8-7--7----5-|
B|------8---8--8-8--10-8--8----10-8--8----7-|
G|----9---------------------9----------9----|
D|--9---------------------------------------|
A|------------------------------------------|
E|------------------------------------------|


e|---5-5--5-5--7-5--5-5-7--5-5-2-3-|
B|---7-7--7-7--8-7--7-7-8--7-7-4-5-|
G|-8-------------------------------|
D|---------------------------------|
A|---------------------------------|
E|---------------------------------|
Soy un hombre muy honrado, que me gusta lo mejor
e|-------------------------------------------------------7-|
B|----------------------------------------------------7----|
G|-------------------------------------------------8-------|
D|----------------------------------------------9----------|

las mujeres no me faltan, ni el dinero ni el Amor
e|------------------------------------------8--7------------|
B|-----------------------------------------------10--8-7----|
G|--------------------------------------------------------9-|

      Jineteando en mi caballo, por la sierra yo me voy
e|------------------------------------------------------8-7-------8-7--|
B|-------------------------------------------------7-10------7-10------|



       Las estrellas y la luna, ellas me dicen donde voy
e|---------------------------------------------------------7------8-7--|
B|-----------------------------------------------------------7-10------|
G|--------------------------------------------------------------------9|


   Ay    ,  ay   ,  ay   ,  ay , ay ,   ay   mi amor.
e|-8-5---8-5-8-7--7-7---7--5---5-5---5-7-----------|
B|-----5---------8----8------7-----8-----8-5-8-5-8-|


   Ay    mi  morena   de     mi     corazon
e|-8-5---8-5-8-7--7-7--5-7--5-----5-------|
B|-----5---------8------------7-8---8-7-5-|

inician con el interlude (intro) con variaciones,

e|----7-7--7-7---8-7--7-----8-7--7----5---|
B|--8-8-8--8-8--10-8--8----10-8--8----7---|
G|9---------------------9----------9------|

(/ = slide)

e|-----5-5--5-5--5/7-5-5--5--7-5--5/2-3---|--0----| |
B|---7-7-7--7-7--7---7-7--7--8-7--7/4-5---|---0---| |
G|-8--------------------------------------|----0--| V
D|----------------------------------------|-----2-|


Me gusta tocar guitarra, me gusta cantar el son

Mi mariachi me acompaña, cuando canto mi cancion
e|--7-7--7-7-7-7--7--7------------|
B|--7-7--7-7-7-7--7----8-------8--|
G|--8-8--8-8-8-8--8-------9------9|
D|--------------------------9-----|

  Me gusta tomar mis copas
e|-8-7-------7-7-----7-------7-|
B|-----8---8-----8-----8-------|
G|-------9---------9-----9-8---|

aguardiente es lo mejor,

Tambien el tequila blanco, con su sal le da sabor
e|-7--------------------------------|
B|-----8--7--5----------------------|
G|--------------8--6--4--4--4-------|
D|-----------------------------2----|


   Ay  ,  ay ,ay ,    ay, Ay   ,  ay   ,    mi amor

e|-8-5-0-8-5-8-7------7---5------5---|
B|-----------------8---------7-----8-|


   Ay    mi    morena      de       mi     corazon
e|-8-5-0-8-5-8-7--7-7---7--5-------5--------|
B|---------------8----8------7--8-----8--7-5|


SOLO:

e|----------12-------------11-------------11-------------|
B|--12--8-12--12-8-12-0-12---12-10-12-0-12--12-10-12-0-12|



e|12-------------12-------------11-----------11---------------|
B|--12-8-12-0-12---12-8-12-0-12---12-10-12-0---10-12-0--10-12-|


e|---12--------12--------12-----|10----10-8----8-7---7-5---7|
B|0-----8-12-0----8-12-0----8-12|---12------10-----8-----7--|


e|-3---3-2---2-0---0----------------------------------------|
B|---5-----3-----3---3-0-1-0----0---0-1-0-------------------|
G|--------------------------------2-------2-0--2-0----------|
D|-------------------------------------------4----4-2-0-----|
A|------------------------------------------------------3-2-|


e|----------------------------------------7-5-3-2--0-|
B|-0-0--4-5-7----0-0-5-7-8----0-0-4-5-7 0------------|
G|----------------------------------------8-6-4-2--0-|



SILENCIO:

Me gusta tocar guitarra,me gusta cantar el sol
e|------------------------------------------7-8-7--------|
B|------------------------------------------------10-7---|
G|-----------------------------------------------------8-|

Mi mariachi me acompaña, cuando canto mi cancion,

Me gusta tomar mis copas, aguardiente es lo mejor,
e|-----7--(7)--7---- 7--------8-7-------|
B|----------------------8--10------------|
Tambien el tequila blanca, con su sal le da sabor
e|------------------------------7--------------|
B|--------------------------------8------------|
G|----------------------------------8--11--9---|


Ay, ay, ay, ay        Ay, ay, mi amor
e|-8---8-7---7---5---8--7----7---------8------7--7-|
B|--10-------8-------7-------8-----10-10----8-8--8-|
G|---------9-------8------9------9--------9--------|

Ay mi morena de mi corazon
e|-----5--5---------7-7-----8--8-----7-----7---|
B|---4-4--4------8--8-8----10-10-----8-----8---|
G|-4-----------9---------9--------9------------|



Ay, ay, ay, ay    Ay, ay, mi amor
e|----5---5------7----7---------8--------8-------|
B|----7---7------8----8--------10--------10------|
G|-8----------9---------- 9----------------------|

Ay mi morena de mi corazon....
e|-----7-------7----------5----------7-----------|
B|-----8-------8----------7----------7-----------|
G|--9------------------8-------------------------|

Outro...(tremolo)
e|-12-12-12-12-12-12-12-12-12-12-12-12-12-12-12-12|

e|-12-12-12-12-12-12-12-12-12-12-12-12-12-12-12-12|


por favor haganme saber si hay algun error, aunque
lo revise varias veces con la lira y la rola original,
pero por si las dudas. solo escribanme a cesar.olea@yahoo.com
Envía el tono de "Canción del Mariachi" a tu celular/móvil
Este fichero es trabajo propio de su transcriptor y representa su interpretación personal de la canción. El material contenido en esta página es
para exclusivo uso privado, por lo que se prohibe su reproducción o retransmisión, así como su uso para fines comerciales.
© LaCuerda.net · Aviso Legal · Privacidad