Tablatura para Guitarra de Antonio Banderas: Canción del Mariachi
Conexión · Inscripción
Letras y Acordes
Pantalla Completa
Imprimir
Versión Texto
Añadir Favorito
Otras Versiones

Mostrar Diagramas
Desfile Automático
Manipular Acordes
Formato del Texto


Antonio Banderas
Canción del Mariachi(TAB)
calidad:
anot0012
AUTOR: Antonio Banderas  corregir
ALBUM: desconocido
Enviado por Hugo
SI DESEAN LA CANCION COMPLETA CON BAJOS ADORNOS PUNTEO SOLO Y
ACOMPAÑAMIENTO ENTREN A mi web www.chichirikoso.es.tl


LAS NOTAS SON SOLO 3 PARA EL CORO
Y DOS PARA TODA CANCION

SON MI MENOS , LA MENOR Y SI7
ESTA ES LA UNICA VERSION Q TIENE LA PARTESOLO
COMPLETA Y EXACTA
CUALKIER KOSA  ME ESCRIBEN A chugo_fs@hotmail.com
http://www.youtube.com/watch?v=EHFONdE2avU&feature=related
  <<< es el link de
la balada del pistolero como la toko con mi pata [Y]

======================  INTRODUCCION  =============

El rasgueo es la verdad hay varios
pero el que utilizan es dos veces hacia abajo con el dedo medio
luego  una hacia arriba , chaskido y una hacia abajo

pero bien marcado como es ranchera



-----------------------------------
-----------------------------------
-----------------------------------
-----------------------------------
-----------------------------------
----7--8--5--7--3--5--2--3--0


--------------------------------------------0------------
-------------0----0-----0----1----0---------1-----0----------
----------0-----0-----0-----2-------0-------2-------0----2--
------2----------------------------------2------------2--4--
---2--------------------------------------------------------------
----------------------------------------------------------------


-----------------------2---------------------------------------------
---------------------0----------0---1--0---------------------------
--------2---2---2---------2---0---2--0----2-----2-----0----0--
-----1--------------------------------------4-----------2-----
--2------------------------------------------------------------------
----------------------------------------------------------------------


-----------------------------------------0--------------
--------------------------------0-------------------------
----------------------------0-------0---------------
--4-----4~2---------2------------------------------------------
------6------------2---------------------------------------
-------------------------------------------------------







-----7-7-7-7---8--7-7---8--7-7-------
----8--8-8-8--10--8-8-8-10-8-8-------
--9-------------------9-----------8--10
----------------------------------9--11
---------------------------------------------
-----------------------------------------------
-----5-5--5-5--7-5-5------7--5-5--------
---7---7--7-7--8-7-7--7---8--7-7---7-8-
-8--------------------8------------8-9-
-------------------------------------------------
-------------------------------------------------
-------------------------------------------------


Soy un hombre muy honrado,
Que me gusta lo mejor


------7--------7--------7------7-------------------------
---8--------8--------8------8----------------------------
9--------9--------9------9--------------------------
--------------------------------------------------
-----------------------------------------------------
--------------------------------------------------

LAs mujeres no me faltan,
Ni al dinero, ni el amor

---8--7--5-------------------------------------------------
---------------8---7--5-----------------------------
-------------------------------------------------------
-------------------------------------------------------
--------------------------------------------------------
------------------------------------------------------

jineteando en mi caballo
por la sierra yo me voy

------------8--7-------------8--7-------------8--7--------8--7-
-7---10------------7--10-----------7--10-----------7--10-------5
----------------------------------------------------------------
----------------------------------------------------------------
--------------------------------------------------------------
--------------------------------------------------------------

las estrellas y la luna
ellas me dicen donde voy

ay, ay, ay, ay
ay, ay mi amor
ay mi morena,
de mi corazon

-----7-7-7-7---8--7-7---8--7-7-------
----8--8-8-8--10--8-8-8-10-8-8-------
--9-------------------9-----------8--10
----------------------------------9--11
-----------------------------------------------
----------------------------------------------

-----5-5--5-5--7-5-5------7--5-5--------
---7---7--7-7--8-7-7--7---8--7-7---7-8-
-8-------------------8-------------8-9-
-----------------------------------------------
-------------------------------------------------
-------------------------------------------------

me gusta tocar guitarra
me gusta cantar el son

el mariachi me acompaña
cuando canto mi canción

me gusta tomar mis copas
aguardiente es lo mejor

tambien la tequila blanco
con su sal le da sabor

----------------------------------
-----8---7---5------------------
----------------------------------
----------------------------------
----------------------------------
----------------------------------

ay, ay, ay, ay
ay, ay mi amor
ay mi morena,
de mi corazon

---> SOLO  <--- ( Tienen que agarrarle el ritmo)

---7-----7----12--7-----7------7---11--7--------7--
------8--------------8----0-----------------10-----
-----------------------------------------------------------
-----------------------------------------------------------
-----------------------------------------------------------
-----------------------------------------------------------

-----7---11---7--------7--------7---12---7--------7---
-0------------------10-------0------------------10-------
--------------------------------------------------------------
--------------------------------------------------------------
--------------------------------------------------------------
--------------------------------------------------------------

------7--12--7--------7--------7--11--7-------7----11-----7--
--0---------------10--------0-----------10------------10-----
---------------------------------------------------------------
-----------------------------------------------------------------
----------------------------------------------------------------
---------------------------------------------------------------

----12---|-----12-----12----------10--10--8---8--7--7---5--5
--12---------12-----12------12-----12------10------8------7--
12--------12------12------12--------------------------------------
------------------------------------------------------------------------
------------------------------------------------------------------------
------------------------------------------------------------------------
-----------------------------------------------------------------------

-3----3--2---2---0--------------------------------------------------
----5-------3---------3--1--0-------0-1-0------------------------------
---------------------------------2--------2-0-2-0--------------------
-----------------------------------------------------4-2-4-2-0------
------------------------------------------------------------------3-2-
------------------------------------------------------------------------

---------------------------------------------------------------------
---0-0---0----4-5-7----0-0---0-5-7-8---0-0---0-4-5-7---
---------------------------------------------------------------------
---------------------------------------------------------------------
---------------------------------------------------------------------
---------------------------------------------------------------------


---7--5--3--2--0--------------------------------------------------
----------------------------------------------------------------------
---8--5--4--2--0--------------------------------------------------
----------------------------------------------------------------------
----------------------------------------------------------------------
----------------------------------------------------------------------


me gusta tocar guitarra

me gusta cantar el son

-----5~7--5---------------------------------
-----------------7---4-----------------------
-----------------------------------------------
-----------------------------------------------
-----------------------------------------------
-----------------------------------------------

el mariachi me acompaña
cuando canto mi canción

me gusta tomar mis copas


--------7----------8--7--------------------
-5--8------8---5----------7----------------
-----------------------------------------------
-----------------------------------------------
-----------------------------------------------
-----------------------------------------------

aguardiente es lo mejor

---------------7-------------------------------
-----------7-----------------------------------
------8----------------------------------------
--9--------------------------------------------
-----------------------------------------------
-----------------------------------------------

tambien el tequila blanco

con su sal le da sabor

-------7----5--------------------------------
------------------8---7----5----------------
----------------------------------------------
----------------------------------------------
----------------------------------------------
----------------------------------------------

ay, ay, ay, ay
ay, ay mi amor
ay mi morena,
de mi corazon

aqui en el final hagan un semipuente de las 3
 primeras cuerdas en el traste 12 y hagan  hacia abajo
 hacia arriba hacia abajo hacia arriba rapidamente

-12-12-12-12-12-12-12-12-..... rápidamente
-12-12-12-12-12-12-12-12
-12-12-12-12-12-12-12-12
-----------------------------------
-----------------------------------
-----------------------------------

Bueno gracias cualquier comentario porfavor
a youtube(chichirikoso)
Hugo F. S
Arequipa - Perú
Este fichero es trabajo propio de su transcriptor y representa su interpretación personal de la canción. El material contenido en esta página es
para exclusivo uso privado, por lo que se prohibe su reproducción o retransmisión, así como su uso para fines comerciales.

© LaCuerda.net · Aviso Legal · Privacidad