Tablatura para Guitarra de Andrés Calamaro: Sin Documentos
Conexión · Inscripción
Letras y Acordes
Pantalla Completa
Imprimir
Versión Texto
Añadir Favorito
Otras Versiones

Mostrar Diagramas
Desfile Automático
Manipular Acordes
Formato del Texto


Andrés Calamaro
Sin Documentos(TAB)
calidad:
acal2015
AUTOR: Andres Calamaro
ALBUM: desconocido
Enviado por sebastian
Fa7+/11+

E--------
B--------
G-2------
D-3------
A-3------
E--------

Intro:

E-0-0-0-0-1-0---0-0-0-0-0-1-0---0-0-0-1-3-1-1-0-0---------------
B------------1-1-------------0-0-----------------3-3-1-0-1-3-1-0
G-------------2---------------1---------------------------------
D---------------------------------------------------------------
A---------------------------------------------------------------
E---------------------------------------------------------------

Punteo octavado:

E-12-12-12-12-13-12------12-12-12-12-12-13-12------12-
B------------------13--13--------------------12--12---
G--------------------14------------------------13-----
A-----------------------------------------------------
E-----------------------------------------------------

-12-12-13-15-13-13-12-12-----------------------E
-----------------------15-15-13-12-13-15-13-12-B
-----------------------------------------------G
-----------------------------------------------D
-----------------------------------------------A
-----------------------------------------------E


Déjame atravesar el viento sin documentos
que lo haré por el tiempo que tuvimos...
Porque no queda salida, porque pareces dormida,
porque buscando tu sonrisa estaría toda mi vida.

Quiero ser eel único que te muerda la boca,
quiero saber que la vida contigo no va a terminar...

Déjame que ésta noche te cierre los ojos,
y mañana me iré con un cigarro a la cama.
Porque no tengo más intenciónes de seguir bebiendo
de ésta copa que no está tan rota!

Quiero ser eel único que te muerda la boca,
quiero saber que la vida contigo no va a terminar.

Porque sí, porque sí, porque sí!!
porque en ésta vida no pasar un día sin tí.
Porque sí, porque sí, porque sí!!
porque mientras espero, por tí me muero
y no puedo seguir así...

E-0-0-0-0-1-0---0-0-0-0-0-1-0---0-0-0-1-3-1-1-0-0---------------
B------------1-1-------------0-0-----------------3-3-1-0-1-3-1-0
G-------------2---------------1---------------------------------
D---------------------------------------------------------------
A---------------------------------------------------------------
E---------------------------------------------------------------

Punteo octavado:

E-12-12-12-12-13-12------12-12-12-12-12-13-12------12-
B------------------13--13--------------------12--12---
G--------------------14------------------------13-----
A-----------------------------------------------------
E-----------------------------------------------------

-12-12-13-15-13-13-12-12-----------------------E
-----------------------15-15-13-12-13-15-13-12-B
-----------------------------------------------G
-----------------------------------------------D
-----------------------------------------------A
-----------------------------------------------E


Al punteo lo pueden tocar en cualquier de las formas,
cualquier consulta mandenmen un email a:
seba-strike@hotmail.com y se lo contestare CHAU!
Este fichero es trabajo propio de su transcriptor y representa su interpretación personal de la canción. El material contenido en esta página es
para exclusivo uso privado, por lo que se prohibe su reproducción o retransmisión, así como su uso para fines comerciales.

© LaCuerda.net · Aviso Legal · Privacidad