Tablatura para Guitarra de Andrés Calamaro: Mi Enfermedad
Conexión · Inscripción
Letras y Acordes
Pantalla Completa
Imprimir
Versión Texto
Añadir Favorito
Otras Versiones

Mostrar Diagramas
Desfile Automático
Manipular Acordes
Formato del Texto


Andrés Calamaro
Mi Enfermedad(TAB)
calidad:
acal1884
AUTOR: Andres Calamaro (letra y Musica)
ALBUM: desconocido
Enviado por mathias
e--------------------------------------------|
B--3-3-3-3-2-0---0---0-----------0-----------|
G--------------2---2---2-2---2-2-------------|
D--------------------------4-------4---------|
A--------------------------------------------|
E--------------------------------------------|

e----------------------------------0---------|
B--3-3-3-3-2-0---0---0-----------3---3--0----|
G--------------2---2---2-2--2----------------|
D--------------------------------------------|
A--------------------------------------------|
E--------------------------------------------|

e--------------------------------------------|
B--3-3-3-3-2-0---0---0------3-2----0--2-0----|
G--------------2---2---2-2-------2-----------|
D--------------------------------------------|
A--------------------------------------------|
E--------------------------------------------|


e--------------------------------------------|
B----------0-0-------------------------------|
G------0-------2--2--------------------------|
D--2-4---------------4-2--0------------------|
A--------------------------------------------|
E--------------------------------------------|


Si Quieres La Cancion Completa
Mandame Un Mail A mathias.duamante@hotmail.com
Este fichero es trabajo propio de su transcriptor y representa su interpretación personal de la canción. El material contenido en esta página es
para exclusivo uso privado, por lo que se prohibe su reproducción o retransmisión, así como su uso para fines comerciales.
© LaCuerda.net · Aviso Legal · Privacidad