Tablatura para Guitarra de Andrés Calamaro: Flaca
Conexión · Inscripción
Letras y Acordes
Pantalla Completa
Imprimir
Versión Texto
Añadir Favorito
Otras Versiones

Mostrar Diagramas
Desfile Automático
Manipular Acordes
Formato del Texto

Andrés Calamaro
Flaca(TAB)
calidad:
acal0236
AUTOR: Andrés Calamaro
ALBUM: Alta Suciedad (19??)
Enviado por Matias, basado en Manuel
Asi lo toca posta. Escunchenla y lo veran



(Intro y en el medio de la cancion)
e-----------------------------------------------------------
G-3--0---0-3-4--0---0-4-5--0-------0-3-1-1----0-3--0--------
B-----2-0--------2-0--------2-0-2--------------------2-0-2--
D-----------------------------------------------------------
A-----------------------------------------------------------
E-----------------------------------------------------------


e-----------------------------------------------------------
G-0-3---0---------------------------------------------------
B----------2-0----------------------------------------------
D-----------------------------------------------------------
A-----------------------------------------------------------
E-----------------------------------------------------------

Final:

e-----------------------2-0-0--------------------3-
G-----------------5-4-4--------0---0-3-1-1---0-3---
B------0-2-5--4-4----------------2---------2-------
D-0-2-4--------------------------------------------
A--------------------------------------------------
E--------------------------------------------------


e-------2------------------------------------------
G-0---3---0----------------------------------------
B---2-------2-0------------------------------------
D--------------------------------------------------
A--------------------------------------------------
E--------------------------------------------------



Nota:

Si no les suena escunchenla y fijense los tiempos
Envía el tono de "Flaca" a tu celular/móvil
Este fichero es trabajo propio de su transcriptor y representa su interpretación personal de la canción. El material contenido en esta página es
para exclusivo uso privado, por lo que se prohibe su reproducción o retransmisión, así como su uso para fines comerciales.
© LaCuerda.net · Aviso Legal · Privacidad