Letra y Acordes de Amaral: Rock & roll
Conexión · Inscripción
Letras y Acordes
Pantalla Completa
Imprimir
Versión Texto
Añadir Favorito
Otras Versiones

Mostrar Diagramas
Desfile Automático
Manipular Acordes
Formato del Texto


Amaral
Rock & roll
calidad:
amrl0612
AUTOR: Amaral  corregir
ALBUM: Gato Negro-dragón rojo (2008)
Enviado por Mario, basado en Laura
*CEJILLA TRASTE II*

(El coro se hace con rasgueo combinado con arpegios)

Esta es la forma mas aproximada
pero pueden cambiarla a su gusto
de todos modos se oye bien

E|----x--x---x|
B|---x------x-|
G|--x---x--x--|
D|------------|
A|-x----------|
E|------------|





Intro:

E|----------------------------------------------------------------------|
B|----------------------------------------------------------------------|
G|-------7-------7---7-8-7--------9--7-8-7-------7-s-8-7---------------7|
D|-9-7-9---9-7-9------------9-7-9----------9-7-9----------7-9---9-7-9-7-|
A|------------------------------------------------------------9---------|
E|----------------------------------------------------------------------|

G                   D
Era la banda del barrio
                   Em
como los truenos sonando
                 D
rompiendo la medianoche
                 Em
encima del escenario.

Em      G            D
Sólo teníamos quince años
                    Em
y ahí supe lo que sería
                 D
dos corazones marcados
                      Em   Em D C
para el resto de los días.

-----------------------------
Coro:
       D         Em
Ya no tengo solución
       C             G
sé que no tengo remedio
          C             D
rock and roll para ser libres
         Em
como el viento.
-------------------------------


Em     G           D
Eran maneras de vivir
                  Em
por un pedazo de sueño
             G       D
siempre que salgo a tocar
                        Em
me acuerdo de aquellos tiempos.

C                 G
Sigo buscando la verdad
C                     G
cuando se rompe el silencio
                     D
siempre que salgo a tocar
                  Em      Em D C
me vienen esos recuerdos.


Coro:
-------------------------------
       D        Em
Ya no tengo solución
       C           G
sé que no tengo remedio
          C               D
rock and roll para ser libres
          Em   Em D C
como el viento.

--------------------------------


Coro:
--------------------------------
       D        Em
Ya no tengo solución
       C             G
sé que te echaré de menos
     C              D
yo nací para ser libre
            Em
como el viento.
---------------------------------

E|------------------------------------------------------------------------|
B|----------------------------------------------------------------------5v|
G|------7-------7--7-8-7-------9--7-8-7------7-8-7-----7-7-7-7-5-5-5-5----|
D|9-7-9---9-7-9----------9-7-9----------9-7-9------7-9--------------------|
A|------------------------------------------------------------------------|
E|------------------------------------------------------------------------|

C      D         Em
Ya no tengo solución
       C           G
sé que no tengo remedio
          C               D
rock and roll para ser libres
            Em  Em D C
como el viento.

       D        Em
Ya no tengo solución
       C             G
se que te echaré de menos
     C              D
yo nací para ser libre
            Em  Em  D
como el viento.

C D Em D

E|--------------------------------------------------------|
B|--------------------------------------------------------|
G|------7-------7--7-8-7--------9--7-8-7------7-s-8-7-----|
D|9-7-9---9-7-9----------9-7-9----------9-7-9---------7-9-|
A|--------------------------------------------------------|
E|--------------------------------------------------------|

E||---------------||
B||---------------||
G||-7-8-7-8-7-----||
D||------------9-7||
A||---------------||
E||---------------||


Em


Esto es todod e esta genial cancion de Amaral,
 basicamente cambie los punteos que a mi gusto se oyen mejor asi
 y la ultima seccion del punteo final la que esta entre ||---||


se repite varias veces,es cuestion solo de tomarle el ritmo

agradecimientos y demas...

azathoth_the_black_arlekin@hotmail.com
Este fichero es trabajo propio de su transcriptor y representa su interpretación personal de la canción. El material contenido en esta página es
para exclusivo uso privado, por lo que se prohibe su reproducción o retransmisión, así como su uso para fines comerciales.

© LaCuerda.net · Aviso Legal · Privacidad