Tablatura para Guitarra de Amaral: No sabe donde va
Conexión · Inscripción
Letras y Acordes
Pantalla Completa
Imprimir
Versión Texto
Añadir Favorito
Otras Versiones

Mostrar Diagramas
Desfile Automático
Manipular Acordes
Formato del Texto

Amaral
No sabe donde va(TAB)
calidad:
amrl0181
AUTOR: Juan Aguirre, Eva Amaral
ALBUM: Estrella de Mar
Enviado por ArK
temass0 d amaral, keno ¿? :)

E--11--11--11--12--11---------11-------------11-------------11--11--11--14--12--11------
B----12--12----------14--12-----14--12----------14--12--------12--12----------------14--
G--------------------------11----------11--------------11-------------------------------


E--12--11-----------12--11---------|
B--------14--12------------12--14--|
G----------------------------------|


SI      FA#
Uh, no sabe a dónde va 
       MI              DO#m       FA#
Pero sí sabe que algún día llegará 
SI      FA#
Uh, no tiene maldad 
       MI              DO#m       FA#
Y sus amigos creen que pronto volverá


MI         DO#m           FA#
La vida en la pequeña aldea
SI                MI           DO#m          FA#
Trabajando por la tierra le empezaba a marchitar
MI         DO#m         FA#
Y se ha marchado sin maletas 
SI                MI           DO#m          FA#
Y con la cabeza llena de historias que inventar


SI      FA#
Uh, no sabe a dónde va 
       MI              DO#m       FA#
Pero sí sabe que algún día llegará 
SI      FA#
Uh, no tiene maldad 
       MI              DO#m       FA#
Y sus amigos creen que pronto volverá


MI         DO#m           FA#
Le han enseñado a ser valiente, 
SI                MI           DO#m          FA#
A querer bien a su gente, a saber cuándo escuchar
MI         DO#m           FA#
Ahora ella toma la palabra, 
SI                MI           DO#m          FA#
Ahora se marcha de casa, Quiere ver el mundo, hacerlo suyo.


SI      FA#
Uh, no sabe a dónde va 
       MI              DO#m       SI
Y de momento lo ha dejado todo atrás

E--11--11--11--12--11---------11--11--11--12--11-------------------11-------------
B----12--12----------14--12-----12--12----------14--12------12--14----14--12--14--
G---------------------------------------------------------11----------------------


E--11--11--11--14--12--11---------12--11------------12--11----------------------|
B----12--12---------------14----14-------14--12---12------12--14-----12--11-----|
G----------------------------------------------------------------------------11-|

MI         DO#m           FA#
Sabe muy bien lo que se siente 
SI                MI           DO#m          FA#
Cuando nadie te comprende Y estás fuera de lugar 
MI         DO#m           FA#
Porque su mundo es diferente 
SI                MI           DO#m          FA#
Y parece siempre ausente, Sólo un bicho raro con pocos años 


MI         DO#m           FA#
Le acompañan las canciones, 
SI                MI           DO#m          FA#
Las antiguas grabaciones Que guardaba en el desván 
MI         DO#m           FA#
El tocadiscos de su hermana 
SI                MI           DO#m          FA#
Con la aguja mal templada Todavía suena mientras ella se aleja 

SI      FA#
Uh, no sabe a dónde va 
       MI              DO#m       SI
Pero sí sabe que algún día llegará 
SI      FA#
Uh, no sabe a dónde va 
       MI              DO#m
Pero no va olvidar de dónde viene, 
       MI              DO#m
Porque es todo lo que tiene 
       MI              DO#m       SI
Mientras ella aprende a caminar

oleoleoleee k majika sta song :_)
ale, a disfrutar !! talueh maj0s !!
Este fichero es trabajo propio de su transcriptor y representa su interpretación personal de la canción. El material contenido en esta página es
para exclusivo uso privado, por lo que se prohibe su reproducción o retransmisión, así como su uso para fines comerciales.
© LaCuerda.net · Aviso Legal · Privacidad