Tablatura para Guitarra de Almafuerte: Mi Credo
Conexión · Inscripción
Letras y Acordes
Pantalla Completa
Imprimir
Versión Texto
Añadir Favorito
Otras Versiones

Mostrar Diagramas
Desfile Automático
Manipular Acordes
Formato del Texto

Almafuerte
Mi Credo(TAB)
calidad:
alma0881
AUTOR: Almafuerte
ALBUM: Trillando la fina (2012)
Enviado por arian
INTRO

E |--7-----7-----7-----7-------|--2-----2-----2-----2-------|
B |-----0-----0-----0-----0----|-----0-----0-----0-----0----|
G |----------------------------|----------------------------|
D |----------------------------|--4-----4-----4-----4-------|
A |----------------------------|----------------------------|
E |----------------------------|----------------------------|


  |--3-----3-----3-----3-------|--2-----2-----2-----2-------|
  |-----0-----0-----0-----0----|-----0-----0-----0-----0----|
  |----------------------------|----------------------------|
  |--2-----2-----2-----2-------|--0-----0-----0-----0-------|
  |----------------------------|----------------------------|
  |----------------------------|----------------------------|


  |--7-----7-----7-----7-------|--7-----7-----7-----7-------|
  |-----0-----0-----0-----0----|-----0-----0-----0-----0----|
  |----------------------------|----------------------------|
  |----------------------------|----------------------------|
  |----------------------------|----------------------------|
  |----------------------------|----------------------------|


COMIENZA GUITARRA

Bm   F#m   G   Em
Bm    A    G


MIENTRAS HACE ESTO

E |----------------------------------------------------|
B |--3-----------------2-----2-------------------------|
G |-----------------------4--------------------4--2----|
D |----------------------------------------------------|
A |----------------------------------------------------|
E |----------------------------------------------------|


  |----------------------------------------------------|
  |----------------------------------------------------|
  |--4-----------------2--0----------------------------|
  |--------------------------4-----5-----2-----0-------|
  |----------------------------------------------------|
  |----------------------------------------------------|


  |----------------------------------------------------|-------|
  |--3-----------------2-----2-------------------------|-------|
  |-----------------------4--------------------4--2----|--4----|
  |----------------------------------------------------|-------|
  |----------------------------------------------------|-------|
  |----------------------------------------------------|-------|


Bm         F#m  G           Em
De ayer venimos, guitarra y voz
Bm         A   G              Em
soñando siempre la mejor canción
Bm       F#m  G      Em
estoy creído, difundirán
Bm      A        G
radios AM de la ciudad central.


E |--7-----7-----7-----7-------|--2-----2-----2-----2-------|
B |-----0-----0-----0-----0----|-----0-----0-----0-----0----|
G |----------------------------|----------------------------|
D |----------------------------|--4-----4-----4-----4-------|
A |----------------------------|----------------------------|
E |----------------------------|----------------------------|


  |--3-----3-----3-----3-------|--2-----2-----2-----2-------|
  |-----0-----0-----0-----0----|-----0-----0-----0-----0----|
  |----------------------------|----------------------------|
  |--2-----2-----2-----2-------|--0-----0-----0-----0-------|
  |----------------------------|----------------------------|
  |----------------------------|----------------------------|


Bm        F#m        G              Em
Creí que iba a poder, creí en la verdad
Bm       A           G            Em
creí de fijo que no me iban a fallar
Bm          F#m      G            Em
lo que la gente cree, yo creí también
Bm       A         G
creí en todo lo que hay que creer.


D                   G
Creí en el amor, creí en la amistad
A                    G
creí que fuerza no me iba a faltar
   Bm        A    G    F#m   Em
de todo lo creído me creí saber
         A
que todo es, creer o no creer.


Bm   F#m   G   Em
Bm    A    G

Dm         Am        Bb             Gm
Creí que lo prestado, me iban a devolver
Dm          C    Bb           Gm
creyendo en ella, creyendo en el
Dm        Am   Bb           Gm
vengo creyendo en el dios vivo
Dm       C          Bb           Gm        A
que tus hijos son iguales a los míos
    Em         F#
¡Oh no! ¡Por dios!


E |--10-9--7------------------------||
B |-----------11-8------------------||
G |-----------------11-9--7--6--7---||
D |--9--8---------------------------||
A |--------10-9--7------------------||
E |-----------------10-9--7--5--10--||


D             G
Creí también poder folclorear
A                     G
un parecer bien nacional
Bm                A       G    F#m      Em
en la tarde de mis cosas, añape´e Dicepolin
        A
ya sin mas.


 G  A  D             A
He creído en tantas cosas
G       F#m     Em
¡Ay, ay, ay! de mí
              A
me cacho en diez

que gil que fui.


E |--7-----7-----7-----7-------|--2-----2-----2-----2-------|
B |-----0-----0-----0-----0----|-----0-----0-----0-----0----|
G |----------------------------|----------------------------|
D |----------------------------|--4-----4-----4-----4-------|
A |----------------------------|----------------------------|
E |----------------------------|----------------------------|


  |--3-----3-----3-----3-------|--2-----2-----2-----2-------|
  |-----0-----0-----0-----0----|-----0-----0-----0-----0----|
  |----------------------------|----------------------------|
  |--2-----2-----2-----2-------|--0-----0-----0-----0-------|
  |----------------------------|----------------------------|
  |----------------------------|----------------------------|


Bm   F#m   G   Em
Bm    A    G
Bm   F#m   G   Em
Bm    A    G
Em    Bm
Envía el tono de "Mi Credo" a tu celular/móvil
Este fichero es trabajo propio de su transcriptor y representa su interpretación personal de la canción. El material contenido en esta página es
para exclusivo uso privado, por lo que se prohibe su reproducción o retransmisión, así como su uso para fines comerciales.
© LaCuerda.net · Aviso Legal · Privacidad