Tablatura para Guitarra de Alex Campos: Vives tu vivo yo
Conexión · Inscripción
Letras y Acordes
Pantalla Completa
Imprimir
Versión Texto
Añadir Favorito
Otras Versiones

Mostrar Diagramas
Desfile Automático
Manipular Acordes
Formato del Texto

Alex Campos
Vives tu vivo yo(TAB)
calidad:
acam1021
AUTOR: Alex Campos  corregir
ALBUM: "regreso a ti" (2012)
Enviado por GDLM, basado en melquis
Si te gustó esta transcripción, más Transcripciones Cristianas en:
http://acordes.lacuerda.net/ARCH/busca-av.php?action=Amigo&req_data=U:GDLM

Video Tutorial:
https://www.youtube.com/watch?v=GBA6Q7-JIGI
----------------------------------------------------------------------------


Tonalidad: A


Intro:
      A       E F#m     E


Verso:
A                      E
 Que me ha hecho Tu mirada
                          D
 Se ha quedado aquí en mi mente
                  A     E
 Me cautiva la razón.
F#m                E
 Me observas en silencio
                    D
 Cuando te sigo de lejos
                     A     E
 Negando a tu fiel amor.




Precoro:

F#m                 C#m
B|-7s10-------------14--9----|
   La noche se hace fría     |
                     D       |
B|-------------5--10---------|
   Los deseos se agonizan    |
                         E   |
B|---------10--17-17-17-17-17|
   Se entristece el corazón




Coro:
      F#m
Me encuentro perdido,
    D
Estoy confundido,
    A                    E
Recuerdo en silencio tu voz.
    F#m
Tu voz que penetra,
        D
En mi cuerpo en mi alma,
      A                       E
No olvido en ti encuentro perdón.



Interlude:

   F#m      E



Verso 2:
  A                      E
G|6----------------------4-----------|
   Son tan dulces tus palabras       |
                              D      |
G|----------------------------2------|
  Que me envuelven a mí me atrapan   |
                 A    E              |
  Agonía tu canción.                 |
  F#m                   E            |
G|6---------------------9------------|
   La canción que me levanta         |
                          D          |
G|------------------------7----------|
  Que me llama y que me aleja
                         A     E
  De esta absurda tentación.




Precoro:

F#m                  C#m
B|-7s10-------------14--9------|
   Si preguntas si te amo      |
                           D   |
B|----------------------5--10--|
   Mi respuesta es que te adoro|
                       E       |
B|---------10--17-17-17-17-17--|
   Con mi mente y corazón



Coro:
      F#m
Me encuentro perdido,
    D
Estoy confundido,
    A                    E
Recuerdo en silencio tu voz.
    F#m
Tu voz que penetra,
        D
En mi cuerpo en mi alma,
      A                       E
No olvido en ti encuentro perdón




Pre-Solo:
D          E             A    E    F#m
  Y este amor, con tres días le bastó
D       E         A      E   F#m
 No murió, con poder se levantó,
D        E       A
  Vives Tú vivo yo.





Solo:

  F#m                 D                 A             E
B|-------------------------------------------------------------|
G|-4s6-6----6-6-----6-7------7-7------9-6----6-6--7-6-4-6-7-9--|
D|--------7-------7-------7--7-7----7--------------------------|
                                                               |
  F#m                            D                      A      |
B|-12s14--14-------14-14------14-15------17----14b---12-14-----|
G|--------------14---------14---------14---14------------------|
D|-------------------------------------------------------------|
                                                               |
                     E                                         |
B|-17---17-17-17-17--------------------------------------------|
G|-18---18-18-16-16--14-14-13-13-11-9-11b----------------------|
D|-------------------------------------------------------------|



Coro:
      F#m
Me encuentro perdido,
    D
Estoy confundido,
    A                    E
Recuerdo en silencio tu voz.
    F#m
Tu voz que penetra,
        D
En mi cuerpo en mi alma,
      A                       E
No olvido en ti encuentro perdón.



    F#m
Perdón que del cielo,
   D
Bajó siendo niño,
     A                  E
Ese niño murió por mi amor.

  F#m       D            A
G|6-6--4--6-6--6-6--4--6-6--------|
  Te amo a Tí, Te amo a Tí,       |
              E                   |
G|-6--7--6--6---4-6-7-9-----------|
  Tán solo a Tí.                  |
  F#m       D            A        |
B|14-14-12-14-14--14-14-12-14-14--|
  Te  amo  a  Tí, Te  amo  a  Tí, |
              E                   |
B|14-15-14-14--12b-----------10---|
  Tan solo a Tí.


D        E         A
  Vives Tú y vivo yo





Canción sacada de:
http://www.masmusicacristiana.com/alex-campos_vives-tu-y-vivo-yo.html

Por Favor Califiquen

E-mail: danieluchuk@gmail.com
https://www.facebook.com/GustavoDanielLuchukMachado
Manden sugerencias o peticiones sobre esta canción o para sacar otra, gracias.

GDLM

Paz. Sea para alabanza a Dios, Bendiciones...

Saludos desde Iglesia de Dios (7 Día). San Vicente, Misiones, Argentina.
Envía el tono de "Vives tu vivo yo" a tu celular/móvil
Este fichero es trabajo propio de su transcriptor y representa su interpretación personal de la canción. El material contenido en esta página es
para exclusivo uso privado, por lo que se prohibe su reproducción o retransmisión, así como su uso para fines comerciales.
© LaCuerda.net · Aviso Legal · Privacidad