Tablatura para Bajo de Alex Campos: Tan lejos tan cerca
Conexión · Inscripción
Letras y Acordes
Pantalla Completa
Imprimir
Versión Texto
Añadir Favorito
Otras Versiones

Mostrar Diagramas
Desfile Automático
Formato del Texto

Alex Campos
Tan lejos tan cerca(BAJ)
calidad:
acam0232
AUTOR: Alex Campos
ALBUM: Al Ta Ller del Maestro (2002)
Enviado por jorge
Este canto primero lo tiene que oir para poder saber
los cambios de ritmo...
Los versos van en ritmo reggae..y el coro va
como rock con el bajo nada mas marcando
y haciendo las figuras que ahi esta..

El tab es el bajeo y las notas son para la guitarra..
Y lo ultimo los riff lo puedes tocar con la lira..suenan chido

Alguna duda mi msn es bggs15@hotmail.com

Ayudaria mucho un efecto de trompetita en el sintetizador o
 teclado...

Y el final...el reasgueo es raro pero esta chido..
ahi estan las notas
practiquenla y veran que si le saldra..

Esta es la base del bajeo con sus figuras pero en este canto
tu puedes improvisar haciendo
tus figuras y dandole mejor ritmo....

La guitarra en los versos va nada mas hacia arriba rasgueado...
notenlo en la cancion y
en el coro y otras partes ya va como rock..
nada mas las puras quintas...pero sin mucho distor

Y no sean malos califiquela para ir mejorando por favor..

JorGe




Intro:

E------2-4-----------------------2-4-----------------------
A--4-4-----2s4-4-4-----------4-4-----2s4-4-4s7~~-----------
D------------------/4~-2-----------------------------------  X2
G----------------------------------------------------------

Esta parte del intro va con el puro bajo y la guitarra
con efecto, la guitarra haciendo
la misma figura..
(La guitarra lo puede hacer una o dos octavas abajo)

Verso 1:

C#m
Quelas horas pasan,que los tiempos cambian,el tiempo
no lejos esta bien
E------2-4-----------------------2-4-----------------------
A--4-4-----2s4-4-4-----------4-4-----2s4-4-4s7~~-----------
D------------------/4~-2-----------------------------------
G----------------------------------------------------------

C#m                                                       B
Que si miro al cielo, que dejo de hacerlo el mundo esta alreves
E------2-4-----------------------2-4-----------------------
A--4-4-----2s4-4-4-----------4-4-----2s4-4-4s7~~-----------
D------------------/4~-2-----------------------------------
G----------------------------------------------------------


Musica con trompetas:

Aqui va el riff 1

C#m                                           B
E------2-4-----------------------2-4-----------------------
A--4-4-----2s4-4-4-----------4-4-----2s4-4-4s7~~-----------
D------------------/4~-2-----------------------------------
G----------------------------------------------------------
 C#m                                        B
E------2-4-----------------------2-4-----------------------
A--4-4-----2s4-4-4-----------4-4-----2s4-4-2-3-4-----------
D------------------/4~-2-----------------------------------
G----------------------------------------------------------


Verso 2:

C#m
Somos un imperio, somos ese pueblo que aun añora hoy
E------2-4-----------------------2-4-----------------------
A--4-4-----2s4-4-4-----------4-4-----2s4-4-4s7~~-----------
D------------------/4~-2-----------------------------------
G----------------------------------------------------------

C#m                                                    B
Somos enemigos, somos competencia y la gente muere sin El.
E------2-4-----------------------2-4-----------------------
A--4-4-----2s4-4-4-----------4-4-----2s4-4-4s7~~-----------
D------------------/4~-2-----------------------------------
G----------------------------------------------------------

Nota: Aqui para pasar al coro..
la guitarra empieza el ascenso desde un punto arbitrario
hasta llegar a la nota de Mi..
Escuchen la cancion y esta chido el pase..
(puede empezar desde Si)


Coro:
E                          B                                C#m
Tan lejos, tan cerca yo estare, hoy llamo tu nombre mañana no se
E-0-0-0-0-0-0-0-0-0-2-2-4-4------------------------------------
A---------------------------2-2--2-2-2--2-2-2--2-2-2--3-3--4-4-
D--------------------------------------------------------------
G--------------------------------------------------------------
                                B
Hoy quiero amarte no hay que comer
E-----------------------------------
A--4-4-4--4-4-4--6-6--7-7------2-2---
D-----------------------------------
G-----------------------------------
                                 E
mañana es tarde no hay tiempo en El
E-----------------4------2--------0--
A--2-------0-------------------------
D---------------------6------4-------
G-----4-------2----------------------

Esta parte del bajo lleva un tiempo particular..
Escuchen la rola para que puedan tocarlo..


E                           B                              C#m
Tan lejos, tan cerca yo estare, estando muy cerca yo lo sabre
E-0-0-0-0-0-0-0-0-0-2-2-4-4-------------------------------------
A---------------------------2-2--2-2-2--2-2-2--2-2-2--3-3--4-4--
D---------------------------------------------------------------
G---------------------------------------------------------------
                               B
Junto al maestro me siento bien,
E-----------------------------------
A--4-4-4--4-4-4--6-6--7-7------2-2---
D-----------------------------------
G-----------------------------------
                                E
tan lejos, tan cerca donde estare,
E-----------------4------2--------0--
A--2-------0-------------------------
D---------------------6------4-------
G-----4-------2----------------------

E                           B                              C#m
Eh                         eh eh                          eh..
E-0-0-0-0-0-0-0-0-0-2-2-4-4-------------------------------------
A---------------------------2-2--2-2-2--2-2-2--2-2-2--3-3--4-4--
D---------------------------------------------------------------
G---------------------------------------------------------------

                               B
                            ...oe
E--------------------------------------------4----2/12s(2)---
A--4-4-4--4-4-4--6-6--7-7------2--2-----0---------------------
D-----------------------------------------------6-------------
G------------------------------------4-----2------------------


Intermedio:

Aqui va el Riff 2
E--------------------------------------------------------------
A--4-4---------------------------------2-2---------------------
D-------5-5-4-4-5-5-6-6-5-5-4-4-5-5---------3-3-2-2-3-3-2~-----
G--------------------------------------------------------------

La parte anterior va con el bajo haciendo
la figura y la guitarra
haciendo lo mismo... y unas trompetitas por ahi..

Verso 3:

C#m
Parael no hay hora,para el no hay tiempo,
vino nuevo viejo esta bien
E------2-4-----------------------2-4-----------------------
A--4-4-----2s4-4-4-----------4-4-----2s4-4-4s7~~-----------
D------------------/4~-2-----------------------------------
G----------------------------------------------------------

C#m                                                       B
Y desde el cielo vino a esta tierra, hay un mundo que poseer
E------2-4-----------------------2-4-----------------------
A--4-4-----2s4-4-4-----------4-4-----2s4-4-4s7~~-----------
D------------------/4~-2-----------------------------------
G----------------------------------------------------------

Musica con trompetas:

Aqui va el Riff 1

C#m                                           B
E------2-4-----------------------2-4-----------------------
A--4-4-----2s4-4-4-----------4-4-----2s4-4-4s7~~-----------
D------------------/4~-2-----------------------------------
G----------------------------------------------------------
 C#m                                        B
E------2-4-----------------------2-4-----------------------
A--4-4-----2s4-4-4-----------4-4-----2s4-4-2-3-4-----------
D------------------/4~-2-----------------------------------
G----------------------------------------------------------

Verso 4:

C#m
Somos ese pueblo, hijos de un padre, juntos lograremos vencer
E------2-4-----------------------2-4-----------------------
A--4-4-----2s4-4-4-----------4-4-----2s4-4-4s7~~-----------
D------------------/4~-2-----------------------------------
G----------------------------------------------------------

C#m                                                    B
Dame tu la mano, toma tu la mia, tu y yo somos vida en el
E------2-4-----------------------2-4-----------------------
A--4-4-----2s4-4-4-----------4-4-----2s4-4-4s7~~-----------
D------------------/4~-2-----------------------------------
G----------------------------------------------------------

Nota: Aqui para pasar al coro..
la guitarra empieza el ascenso desde un punto arbitrario
hasta llegar a la nota de Mi..
Escuchen la cancion y esta chido el pase..
(puede empezar desde Si)

Coro:

Puente:

En este puente cambian las notas, sube el coro a G..

Aqui va el Riff 3:

 G
E-3-3-3-3-3-3-3-3-3--5-5--7-7-
A-----------------------------
D-----------------------------
G-----------------------------

   D                              Em                    Bm
E--------------------------------------------------------------
A--5-5--5-5-5--5-5-5--5-5-5--6-6--7-7--7-7-7--7-7-7--9-9-------
D-------------------------------------------------------7-7----
G--------------------------------------------------------------

E-7-7--7-7-7--7-7-7----
A----------------------
D----------------------
G----------------------

   D                              Em                    Bm
E--------------------------------------------------------------
A--5-5--5-5-5--5-5-5--5-5-5--6-6--7-7--7-7-7--7-7-7--9-9-------
D-------------------------------------------------------7-7----
G--------------------------------------------------------------

E-7-7--7-----5-----3-----2-------0--
A-----------------------------------
D---------9-----7-----5-----4----2--
G------------------------------2----

Coro:

Final: Escuchenlo para saber donde va cada nota,..!

E - B - A - F# - B - C#m

-----------------------------------------------------------
Estos Riff son las trompetitas,
las saque en la guitarra para poder tocarlas mejor por si no
tienen sintetizador o teclado...
Escuchen la cancion para que los puedan tocar correctamente..

Riff 1:

E ----------------------------------------------
A ----------------------------------------------
D ----------------------------------------------
G --6-6---6---------------6---6-6---6-----------
B ------5---5--/8-7-5-7-5---5-----5---5-/8~(9)--
e ----------------------------------------------

E ----------------------------------------------
A ----------------------------------------------
D ----------------------------------------------
G --6-6---6---------------6---6-6---6-----------
B ------5---5--/8-7-5-7-5---5-----5---5-/8~(7)--
e ----------------------------------------------

Nota: Lo de parentesis...se oye tantito nada mas..
aya ustedes si lo quieren tocar o no..

Riff 2:

E --------------------------
A --------------------------
D --------------------------
G --6~-6s9s6-----~~6--------
B -------------------5**----
e --------------------------

Nota: El ultimo seis es que la nota se vaya
dando asi despacito y los asteriscos es que
Cuando se este dando esa nota se distorcione
tantito para que suene fuerte..!

Riff 3:

E ------------------------------------------------------------
A ------------------------------------------------------------
D ------9------------9----------------------------------------
G --7-7---7--7-7-9-7---7--7-4-7------9---7-----12-11----------
B ------------------------------s8-7---7-----12-------10-13---
e ------------------------------------------------------------

E ------------------------------------------------------------
A ------------------------------------------------------------
D ------9------------9----------------------------------------
G --7-7---7--7-7-9-7---7--7-4-7------9---7-----12-11----------
B ------------------------------s8-7---7-----12---------------
e ------------------------------------------------------------

Espero que sea de bendicioes para ustedes como lo es para mi
Saludos a toda la gente de coatza...en especial a la iglesia
monte hermon..!!

Atte: Jorge
Envía el tono de "Tan lejos tan cerca" a tu celular/móvil
Este fichero es trabajo propio de su transcriptor y representa su interpretación personal de la canción. El material contenido en esta página es
para exclusivo uso privado, por lo que se prohibe su reproducción o retransmisión, así como su uso para fines comerciales.
© LaCuerda.net · Aviso Legal · Privacidad