Tablatura para Bajo de Alex Campos: Que eres para mi
Conexión · Inscripción
Letras y Acordes
Pantalla Completa
Imprimir
Versión Texto
Añadir Favorito
Otras Versiones

Mostrar Diagramas
Desfile Automático
Formato del Texto

Alex Campos
Que eres para mi(BAJ)
calidad:
acam0062
AUTOR: Alex Campos
ALBUM: Al Taller del Maestro (2005)
Enviado por Gerardo
			BENDICIONES AQUI LES VA EL BAJO
AUNQUE UNO QUE OTRO ERROR ES POSIBLE


Intro A, F, C, G,



	No encuentro a donde ir si tu no estas junto a mi no encuentro

E  /--------------------------1------------------------3---------------------
A  /------------0-------------------3----------------------------0-----------
D  /-------------------------------------------------------------------------
G  /-------------------------------------------------------------------------



	la salida sin ti mi vida agoniza no encuentro una voz que hable

E  /----------1---------------------3----------------------1-----------------
A  /-------------------3------------------------0------------------3---------
D  /-------------------------------------------------------------------------
G /--------------------------------------------------------------------------



	a mi vida no encuentro unas manos que sanen mis heridas

E  /----------3-----------------------1--------------------3----------
A  /----------------------0--------------------3----------------------
D  /------------------------------------------------------------------
G  /------------------------------------------------------------------



	Aunque yo         pienso que               tu   no existías

E  /------------5-5-3-5-------5---1-0-1----------------------------------------
A  /----------------------3-------------------------3-3-2-3-3-----------3-2----
D  /--------------------------------------2-3-2-3--------------3s-5-3-2--------
G  /---------------------------------------------------------------------------



	vengo a ti          a buscar                aquella salida     se

E  /------------5-5-3-5-------5---1-0-1----------------------------------------
A  /----------------------3-------------------------3-3-2-3-------------3-2----
D  /--------------------------------------2-3-2-3-----------2---3s-5-3-2-------
G  /---------------------------------------------------------------------------







	muy bien       no lo    se                 que eres para mi

E  /----------5-5-3-5------5----1-0-1--------------------------------------
A  /-------------------3--------------------------3-3-2-3--------------3-2-
D  /------------------------------------2-3-2-3------------2—-3s-5-3-2-----
G  /-----------------------------------------------------------------------


	una voz         de religion                O solo teoría

E  /----------5-5-3-5------5----1-0-1--------------------------------------
A  /-------------------3--------------------------3-3-2-3--------------3-2-
D  /------------------------------------2-3-2-3------------2—-3s-5-3-2-----
G  /-----------------------------------------------------------------------




no lo se ( cae a A)

Intro (Am-F-C-G)

EN LA PARTE DE (APRESURATE A MI VIDA) VA ASI

	APRESURATE A MI VIDA ……..
E  /--5--8--10--------------------------3--------------5--8--10---------------------3-
A  /---------------8--7--5--3--2---0-------2—5------------------8--7--5--3--2--0------
D  /----------------------------------------------------------------------------------
G  /----------------------------------------------------------------------------------

DE A QUI ENTRA AL SOLO BASICAMENTE ESTE ES TODO EL CANTO
CUALQUIER PREGUNTA DEJENME SABER O CUALQUIER CORRECCION TAMBIEN
ES POSIBLE QUE NO SEAN PERFECTAS LAS NOTAS PERO LES VA A AYUDAR A TENER
UNA MEJOR IDEA BENDICIONES SALUDOS A TODOS LOS HERMANOS DE HONDURAS
Envía el tono de "Que eres para mi" a tu celular/móvil
Este fichero es trabajo propio de su transcriptor y representa su interpretación personal de la canción. El material contenido en esta página es
para exclusivo uso privado, por lo que se prohibe su reproducción o retransmisión, así como su uso para fines comerciales.
© LaCuerda.net · Aviso Legal · Privacidad